Oops, an error
Loading. Please wait.

Quiero Con Vos chords

11 views 1 this week
no commentswrite comment
1 2 3 4 5
3 more votes to show rating
add to favorites
×
Save as Personal and add changes to this tab that will be seen only by you. Learn more ›
×
You can save this tab as Personal to edit and correct it or add notes. All changes will be seen only by you. Learn more »
launch autoscroll
font size
0
reset
transpose
0
reset
simplify chords
display chords
guitar tuner
edit
Autoscroll
slow
fast
+/-
esc
set tempo
stop
Strumming
There is no strumming pattern for this song yet. and get +5 IQ
intro:E-A-E-B(ver tab)

E           F#m        C#m       B      E A E B
sé que esta vida es suicida por definición
A               E                  B   B7
y que en este país todos se creen dios
que la conciencia surge por ausencia y dolor
y eel bolsillo nos duele más que el corazón

E  F#m G#m A           E F#m G#m
yo mi amor quiero con vos
A          E F#m G#m
quiero con vos
A            E Esus4 E
quiero con vos

B
con palomitas, grillitos y ranas
B7                   B7sus4      B7
con lunas llenas que alumbren mañanas
E  F#m G#m   B          E
yo,mia amor,quiero con vos

sé que la historia es memoria del fuego y del mar
lo demás es un cuento de nunca acabar
piedra,papel o tijera, la apuesta ritual
camnar a la nada y volver a llegar

yo mi amor quiero con vos
quiero con vos
quiero con vos

pintaré de color lila los ríos
y rimaré tu nombre con el mío
yo,mi amor,quiero con vos.

1------------------------------------------
2------------------------------------------
3--4-2-1----4-2-1-2-1---1------------------
4--------4------------4---4-2-4-2-1--------
5------------------------------------------
6------------------------------------------

1------------------------------------------
2------------------------------------------
3--4-2-1----4-2-1-2-1----1-----------------
4--------4------------4----4-2-4-2-1--2----
5------------------------------------------
6------------------------------------------

            
            
Suggest correction
Creating personal tab
Creating personal tab
You can edit any tab online and save it as your Personal.

You can edit, replace or remove any tab part or add personal notes – all changes will be seen only by you.

Personal tabs can be accessed anytime from any device, even offline.
Learn more »
Give kudos to tab author, rate the tab!
1 2 3 4 5
comments
print report bad tab
guest
Wanna post a correction for this tab? Suggest correction