Oops, an error
Loading. Please wait.

Hace Poco tab

56 views 1 this week
no commentswrite comment
1 2 3 4 5
3 more votes to show rating
add to favorites
×
Save as Personal and add changes to this tab that will be seen only by you. Learn more ›
×
You can save this tab as Personal to edit and correct it or add notes. All changes will be seen only by you. Learn more »
launch autoscroll
font size
0
reset
how to read this tab
guitar tuner
edit
Autoscroll
slow
fast
+/-
esc
set tempo
stop
Bueno aqui les traigo esta rolita de la coyota. cualquier duda
a mi email susejo0111@


Afinacion: Normal (EADGBe)
Estilo: Reggea (solo rasgeos hacia ariiba)


Intro X1 (se repite por toda la cancion menos en los coros)

                          G
e]----------3----------------------3----------------------
B]------3-------3--------------3-------3------------------
G]----4---4---4---4----------4---4---4---4----------------
D]--------------------------------------------------------
A]--------------------------------------------------------
E]--3----------------------3------------------------------
                          Bm
e]----------2----------------------2----------------------
B]------3-------3--------------3-------3------------------
G]----4---4---4---4----------4---4---4---4----------------
D]--------------------------------------------------------
A]--2----------------------2------------------------------
E]--------------------------------------------------------
                          Em
e]----------0----------------3-----2----0-----------------
B]------0-------0--------------0-----0----0---------------
G]----0---0---0---0--------------0-----0----0-------------
D]--------------------------------------------------------
A]--------------------------------------------------------
E]--0-----------------------------------------------------
                          C
e]----------0----------------3-----2----0-----------------
B]------1-------1--------------0-----0----0---------------
G]----0---0---0---0--------------0-----0----0-------------
D]--------------------------------------------------------
A]--3-----------------------------------------------------
E]--------------------------------------------------------

G  Bm  Em  C  X3

G
                         Bm
Me gustas tanto estar contento
                        Em
Me incomoda no ser perfecto
                          C
Odio que se me pase el tiempo
                     G
Pero que le voy a hacer?
                     Bm
Me gusta verte ala cara
                        Em
Que me contestes la mirada
                         C
No te preocupes cuando callo
                      G
Disculpa mi forma de ser
                       Bm
Ya se esta hiendo el verano
                           Em
El invierno esta aquí a mi lado
                           C
Se siente un frió entre nosotros
                      G
Y apenas es el quinto mes


Coro

           Bm
A donde irán
             Em
Esos buenos tiempos
            C
Aquellos momentos

Que hoy se han quedado atrás
G
Ya deja que se me pase
                 Bm
Deja que se me olvide esas frases
             Em
Que usábamos tú y yo
             C
Hace poco tiempo

Cuando éramos uno los dos
G
Ya se acabo esta fase
                Bm
Conocer otras mentes otros viajes
            Em
Nuestra fiesta termino
           C
Hace poco tiempo
                         G  Bm  Em  C  X2
Cuando éramos uno los dos


G
                          Bm
No hay medicina en estos casos
                    Em
Ojala fueran mas escasos
                     C
En este mundo tan podrido
                        G
Donde el orgullo puede más
                     Bm
Eh querido andar de prisa
                     Em
Mucho tiempo y me da risa
                            C
Pues lo cierto es que ando lento
                    G
Pero que le voy a hacer
                    Bm
Eh perdido mucho y poco
                   Em
Eh ganado y estoy loco
                  C
Por perder ese recuerdo
                       G
El recuerdo que hay en mí


           Bm
A donde irán
             Em
Esos buenos tiempos
            C
Aquellos momentos

Que hoy se han quedado atrás
G
Ya deja que se me pase
                 Bm
Deja que se me olvide esas frases
             Em
Que usábamos tú y yo
             C
Hace poco tiempo

Cuando éramos uno los dos
G
Ya se acabo esta fase
                Bm
Conocer otras mentes otros viajes
            Em
Nuestra fiesta termino
           C
Hace poco tiempo
                         G  Bm  Em  C  X2
Cuando éramos uno los dos


G
                     Bm
Por las cosas del destino
                   Em
Ya no brindaras conmigo
                   C
Ningún otro aniversario
                     G
Ningún otro viaje al mar
                      Bm
Nuestras piezas se quebraron
                       Em
Ya se empiezan a ir de lado
               C
Van por lados diferentes
              G
Que no nos tocaran


         Bm
A donde irán
         Em
A donde irán
         C
A donde irán
         G
A donde irán
Bm

         Em
A donde irán
         C
A donde irán
         G
A donde irán
Bm

          Em
A donde irán
          C
A donde irán
           G
A donde irán

Fin de la rola espero les haya gustado :) chido y saludos desdE
 Sonora

            
            
Suggest correction
Creating personal tab
Creating personal tab
You can edit any tab online and save it as your Personal.

You can edit, replace or remove any tab part or add personal notes – all changes will be seen only by you.

Personal tabs can be accessed anytime from any device, even offline.
Learn more »
Give kudos to tab author, rate the tab!
1 2 3 4 5
comments
print report bad tab
guest
Wanna post a correction for this tab? Suggest correction