Oops, an error
Loading. Please wait.

Loco De Amor tab

126 views 1 this week
no commentswrite comment
1 2 3 4 5
3 more votes to show rating
add to favorites
×
Save as Personal and add changes to this tab that will be seen only by you. Learn more ›
×
You can save this tab as Personal to edit and correct it or add notes. All changes will be seen only by you. Learn more »
launch autoscroll
font size
0
reset
how to read this tab
guitar tuner
edit
Autoscroll
slow
fast
+/-
esc
set tempo
stop
  Intro


     Am
        (x2)
   /     Am        \
 e|-----5-8-5-----|-----5--12-10-8-10-8-10-7-8-7v-|
 b|---5-------5---|---5---------------------------|
 g|-5-----------5-|-5-----------------------------|
 d|---------------|-------------------------------|
 a|---------------|-------------------------------|
 E|---------------|-------------------------------|

     G
 e|-------7-------|--------10-8-7-8-7-8-5-7-5-|
 b|-----8---8-----|-----8---------------------|
 g|---7-------7---|---7-----------------------|
 d|-9-----------9-|-9-------------------------|
 a|---------------|---------------------------|
 E|---------------|---------------------------|

      Am
     Se repiten las veces q cean necesarias
   /                                        \
 e|--------12-------12-------12----10-----10-|
 b|-10(x3)----10-10----10-10----10----8-8----|
 g|------------------------------------------|
 d|------------------------------------------|
 a|------------------------------------------|
 E|------------------------------------------|

      G
 e|-------10-----10-----10-----12-------12-|
 b|-8(x3)----8-8----8-8-----8-----10-10----|
 g|----------------------------------------|
 d|----------------------------------------|
 a|----------------------------------------|
 E|----------------------------------------|

   Final
 e|-12---10-8-7-8-5v--|
 b|-------------------|
 g|-------------------|
 d|-------------------|
 a|-------------------|
 E|-------------------|


 =Letra=

                          Am
  desde el dia en que te vi mi amor
                    G
  yo de ti me enamoré
                      Dm
  y ahora vivo muy feliz
   G                 Am
  porque tengo tu querer

                          Am
  desde el dia en que te vi mi amor
                      G
  solamente pienso en ti
                           Dm
  y al saber que tu me quieres
   G                     Am
  me dan más ganas de vivir

                 G
  y ahora se porque, yo cada dia más,
                 Am
  me sigo enamorándo de ti, por tu
              G
  forma de ser, por tu forma de besar,
                        Am
  porque tu me brindas todo sin pensar

                 G
  y ahora se porque, yo cada dia más,
                 Am
  me sigo enamorándo de ti, por tu
              G
  forma de ser, por tu forma de besar,
                        Am
  porque tu me brindas todo sin pensar


     Am            F             G
 e|-------------------------------------|
 b|-------------------------------------|
 g|-------------------5-----5---7---7---|
 d|-----------4-5-5/7---5/7---7---7---5-|
 a|-----4-5-7---------------------------|
 E|-5-7---------------------------------|


    Am                            F
 e|---------------|---------------------------|
 b|---------------|---------------------------|
 g|-5-4-----------|-------------------5-----5-|
 d|-----7-5---5---|-----------4-5-5/7---5/7---|
 a|---------7---5-|-----4-5-7-----------------|
 E|---------------|-5-7-----------------------|


    G                Am
 e|-----------5-7-8-12v-|
 b|-----5-7-8-----------|
 g|---5-----------------|
 d|-7-------------------|
 a|---------------------|
 E|---------------------|

 =coro=

             C           G
  me siento loco, loco, loco de amor
         Dm
  de la chica que tiene la llave de
   Am          C           G
  mi corazón, loco, loco, loco de amor
         Dm                Am
  de la chica que me hizo perder la
                        G
  razóooooooooooooooooooon.

  ahi les va otra de la cumbia de mi...
  que la musik fluya es sus corazones y
  que el amor les acompañe

            
            
Suggest correction
Creating personal tab
Creating personal tab
You can edit any tab online and save it as your Personal.

You can edit, replace or remove any tab part or add personal notes – all changes will be seen only by you.

Personal tabs can be accessed anytime from any device, even offline.
Learn more »
Give kudos to tab author, rate the tab!
1 2 3 4 5
comments
print report bad tab
guest
Wanna post a correction for this tab? Suggest correction