Oops, an error
Loading. Please wait.

King Park tab

version 3
version 3

Whole song

  • Includes both rhythm and lead guitar parts for the solo and outro sections.
118 views 6 this week
no commentswrite comment
1 2 3 4 5
3 more votes to show rating
add to favorites
×
Save as Personal and add changes to this tab that will be seen only by you. Learn more ›
×
You can save this tab as Personal to edit and correct it or add notes. All changes will be seen only by you. Learn more »
launch autoscroll
font size
0
reset
how to read this tab
guitar tuner
edit
Autoscroll
slow
fast
+/-
esc
set tempo
stop
About this tab version
Includes both rhythm and lead guitar parts for the solo and outro sections. Was this info helpful? Yes No
Tuning: Standard (E A D G B E)

[Intro Riff]
E|-------------------------|-------------------------|-------------------------|-------------------------|
B|-5--5--5--5--5--5--5--5--|-5--5--5--5--5--5--5--5--|-------------------------|-------------------------|
G|-6--6--6--6--6--6--6--6--|-6--6--6--6--6--6--6--6--|-6--6--6--6--6--6--6--6--|-6--6--6--6--6--6--6--6--|
D|-6--6--6--6--6--6--6--6--|-6--6--6--6--6--6--6--6--|-7--7--7--7--7--7--7--7--|-7--7--7--7--7--7--7--7--|
A|-4--4--4--4--4--4--4--4--|-4--4--4--4--4--4--4--4--|-7--7--7--7--7--7--7--7--|-7--7--7--7--7--7--7--7--|
E|-------------------------|-------------------------|-5--5--5--5--5--5--5--5--|-5--5--5--5--5--5--5--5--|

E|-------------------------|-------------------------|-------------------------|-------------------------|
B|-7--7--7--7--7--7--7--7--|-3--3--3--3--3--3--3--3--|-------------------------|-------------------------|
G|-6--6--6--6--6--6--6--6--|-4--4--4--4--4--4--4--4--|-------------------------|-------------------------|
D|-7--7--7--7--7--7--7--7--|-4--4--4--4--4--4--4--4--|-4--4--4--4--4--4--4--4--|-4--4--4--4--4--4--4--4--|
A|-5--5--5--5--5--5--5--5--|-2--2--2--2--2--2--2--2--|-4--4--4--4--4--4--4--4--|-4--4--4--4--4--4--4--4--|
E|-------------------------|-------------------------|-2--2--2--2--2--2--2--2--|-2--2--2--2--2--2--2--2--|

[Riff] 
"Another shooting on the south-east side..."(0:14)
E|-------------------------|-------------------------|-------------------------|-------------------------|
B|-5--5--5--5--5--5--5--5--|-5--5--5--5--5--5--5--5--|-------------------------|-------------------------|
G|-6--6--6--6--6--6--6--6--|-6--6--6--6--6--6--6--6--|-6--6--6--6--6--6--6--6--|-6--6--6--6--6--6--6--6--|
D|-6--6--6--6--6--6--6--6--|-6--6--6--6--6--6--6--6--|-7--7--7--7--7--7--7--7--|-7--7--7--7--7--7--7--7--|
A|-4--4--4--4--4--4--4--4--|-4--4--4--4--4--4--4--4--|-7--7--7--7--7--7--7--7--|-7--7--7--7--7--7--7--7--|
E|-------------------------|-------------------------|-5--5--5--5--5--5--5--5--|-5--5--5--5--5--5--5--5--|

E|-------------------------|-------------------------|-------------------------|-------------------------|
B|-7--7--7--7--7--7--7--7--|-3--3--3--3--3--3--3--3--|-------------------------|-------------------------|
G|-6--6--6--6--6--6--6--6--|-4--4--4--4--4--4--4--4--|-------------------------|-------------------------|
D|-7--7--7--7--7--7--7--7--|-4--4--4--4--4--4--4--4--|-4--4--4--4--4--4--4--4--|-4--4--4--4--4--4--4--4--|
A|-5--5--5--5--5--5--5--5--|-2--2--2--2--2--2--2--2--|-4--4--4--4--4--4--4--4--|-4--4--4--4--4--4--4--4--|
E|-------------------------|-------------------------|-2--2--2--2--2--2--2--2--|-2--2--2--2--2--2--2--2--|

E|-------------------------|-------------------------|-------------------------|-------------------------|
B|-5--5--5--5--5--5--5--5--|-5--5--5--5--5--5--5--5--|-------------------------|-------------------------|
G|-6--6--6--6--6--6--6--6--|-6--6--6--6--6--6--6--6--|-6--6--6--6--6--6--6--6--|-6--6--6--6--6--6--6--6--|
D|-6--6--6--6--6--6--6--6--|-6--6--6--6--6--6--6--6--|-7--7--7--7--7--7--7--7--|-7--7--7--7--7--7--7--7--|
A|-4--4--4--4--4--4--4--4--|-4--4--4--4--4--4--4--4--|-7--7--7--7--7--7--7--7--|-7--7--7--7--7--7--7--7--|
E|-------------------------|-------------------------|-5--5--5--5--5--5--5--5--|-5--5--5--5--5--5--5--5--|

E|-------------------------|-------------------------|-------------------------|-------------------------|
B|-7--7--7--7--7--7--7--7--|-3--3--3--3--3--3--3--3--|-------------------------|-------------------------|
G|-6--6--6--6--6--6--6--6--|-4--4--4--4--4--4--4--4--|-------------------------|-------------------------|
D|-7--7--7--7--7--7--7--7--|-4--4--4--4--4--4--4--4--|-4--4--4--4--4--4--4--4--|-4--4--4--4--4--4--4--4--|
A|-5--5--5--5--5--5--5--5--|-2--2--2--2--2--2--2--2--|-4--4--4--4--4--4--4--4--|-4--4--4--4--4--4--4--4--|
E|-------------------------|-------------------------|-2--2--2--2--2--2--2--2--|-2--2--2--2--2--2--2--2--|

[Riff] 
"And I travel backwards through time and space" (0:41):
E|----------------------|-------------------------|----------------------|
B|----------------------|-------------------------|----------------------|
G|----------------------|-------------------------|----------------------|
D|--4~------------------|--7~----------2~---------|--4~------------------|
A|--4~------------------|--7~----------2~---------|--4~------------------|
E|--2~------------------|--5~----------0~---------|--2~------------------|

[Riff] 
"I want to see it all first hand this time..." (0:52)
E|-------------------------|-------------------------|-------------------------|-------------------------|
B|-------------------------|-------------------------|-------------------------|-------------------------|
G|-------------------------|-------------------------|-------------------------|-------------------------|
D|-4~-------4--4--0--0--2--|-2~----------------------|-4~-------4--4--0--0--2--|-2-----------------------|
A|-4~-------5--5--2--2--4--|-4~----------------------|-4~-------5--5--2--2--4--|-4--4--4~----------------|
E|-2~----------------------|-------------------------|-2~----------------------|----5--5~----------------|

[Riff]
"So I float behind police lines..." (1:05)
(Guitar 1 - LEAD)
E|-------------------------------------|-------------------------------------|
B|------------10-----------------------|-------------------------------------|
G|--9--11~--------11--9------9---------|-------------------------------------|
D|-----------------------11-----11~----|-------------------------------------|
A|-------------------------------------|-------------------------------------|
E|-------------------------------------|-------------------------------------|

E|------------12--9--------------------|-------------------------------------|
B|-------------------12---10--12~------|-------------------------------------|
G|--9--11~-----------------------------|----------------------------9--9--9--|
D|-------------------------------------|-------------------------------------|
A|-------------------------------------|-------------------------------------|
E|-------------------------------------|-------------------------------------|

E|-------------------------------------|-------------------------------------|
B|------------10-----------------------|-------------------------------------|
G|--9--11~--------11--9------9---------|-------------------------------------|
D|-----------------------11-----11~----|-------------------------------------|
A|-------------------------------------|-------------------------------------|
E|-------------------------------------|-------------------------------------|

E|------------12--9--------------------|-------------------------------------|
B|-------------------12---10--12~------|-------------------------------------|
G|--9--11~-----------------------------|-------------------------------------|
D|-------------------------------------|-------------------------------------|
A|-------------------------------------|-------------------------------------|
E|-------------------------------------|-------------------------------------|

[Riff] 
"I want to write it all down so I can always remember..." (1:32):
E|-------------------------|-------------------------|-------------------------|-------------------------|
B|-------------------------|-------------------------|-------------------------|-------------------------|
G|-------------------------|-------------------------|-------------------------|-------------------------|
D|-------------------------|-4--4--4~----------------|-------------------------|-------------------------|
A|-4~----------4~----------|-4--4--4~----------------|-5-----------4~----------|-2~----------------------|
E|-5~----------5~----------|-2--2--2~----------------|-7~----------5~----------|-4~----------------------|

[Riff] 
[Interlude] 
(1:46)
E|---------------------------|-------------------------|---------------------------|-------------------------|
B|---------------------------|-------------------------|---------------------------|-------------------------|
G|---------------------------|-------------------------|---------------------------|-------------------------|
D|--------------2------------|-------7-----------------|--------------2------------|-------7-----------------|
A|--------4-----------4h5h4~-|----4-----4------4\2--0--|--------4-----------4h5h4~-|----4-----4------4\2--0--|
E|-2~--------2-----2---------|-5------------0----------|-2~--------2-----2---------|-5------------0----------|

[Riff] 
"And the crowd poured out as the shots drowned..." (1:56):
E|---------------------------|-------------------------|---------------------------|-------------------------|
B|---------------------------|-------------------------|---------------------------|-------------------------|
G|---------------------------|-------------------------|---------------------------|-------------------------|
D|--------------2------------|-------7-----------2h4-2-|--------------2------------|-------7-----------------|
A|--------4-----------4h5h4~-|----4-----4-----4--------|--------4-----------4h5h4~-|----4-----4------4\2--0--|
E|-2~--------2-----2---------|-5-----------0-----------|-2~--------2-----2---------|-5------------0----------|

E|---------------------------|-------------------------|---------------------------|-------------------------|
B|---------------------------|-------------------------|---------------------------|-------------------------|
G|---------------------------|-------------------------|---------------------------|-------------------------|
D|--------------2------------|-------7-----------2h4-2-|--------------2------------|-------7-----------------|
A|--------4-----------4h5h4~-|----4-----4-----4--------|--------4-----------4h5h4~-|----4-----4------4\2--0--|
E|-2~--------2-----2---------|-5-----------0-----------|-2~--------2-----2---------|-5------------0----------|

E|---------------------------|-------------------------|---------------------------|-------------------------|
B|---------------------------|-------------------------|---------------------------|-------------------------|
G|---------------------------|-------------------------|---------------------------|-------------------------|
D|--------------2------------|-------7-----------2h4-2-|--------------2------------|-------7-----------------|
A|--------4-----------4h5h4~-|----4-----4-----4--------|--------4-----------4h5h4~-|----4-----4------4\2--0--|
E|-2~--------2-----2---------|-5-----------0-----------|-2~--------2-----2---------|-5------------0----------|

[Riff] 
"And I visit them, their houses..." (2:34):
E|-------------------------|-------------------------|-------------------------|-------------------------|
B|-------------------------|-------------------------|-------------------------|-------------------------|
G|-------------------------|-------------------------|-------------------------|-------------------------|
D|-6--6--6--6--6--6--6--6--|-6--6--6--6--6--6--6--6--|-6--6--6--6--6--6--6--6--|-6--6--6--6--2--2--2--2--|
A|-4--4--4--4--4--4--4--4--|-4--4--4--4--4--4--4--4--|-4--4--4--4--4--4--4--4--|-4--4--4--4--2--2--2--2--|
E|-2--2--2--2--2--2--2--2--|-2--2--2--2--5--5--5--5--|-2--2--2--2--2--2--2--2--|-2--2--2--2--0--0--0--0--|

E|-------------------------|-------------------------|-------------------------|-------------------------|
B|-------------------------|-------------------------|-------------------------|-------------------------|
G|-------------------------|-------------------------|-------------------------|-------------------------|
D|-6--6--6--6--6--6--6--6--|-6--6--6--6--6--6--6--6--|-6--6--6--6--6--6--6--6--|-6--6--6--6--2--2--2--2--|
A|-4--4--4--4--4--4--4--4--|-4--4--4--4--4--4--4--4--|-4--4--4--4--4--4--4--4--|-4--4--4--4--2--2--2--2--|
E|-2--2--2--2--2--2--2--2--|-2--2--2--2--5--5--5--5--|-2--2--2--2--2--2--2--2--|-2--2--2--2--0--0--0--0--|

[Riff]
"All these marks of youth..." (2:58)
E|-------------------------|-------------------------|-------------------------|-------------------------|
B|-------------------------|-------------------------|-------------------------|-------------------------|
G|-6--6--6--6--6--6--6--6--|-6--6--6--6--6--6--6--6--|-6--6--6--6--6--6--6--6--|-6--6--6--6--6--6--6--6--|
D|-------------------------|-------------------------|-------------------------|-------------------------|
A|-4--4--4--4--4--4--4--4--|-4--4--4--4--4--4--4--4--|-4--4--4--4--4--4--4--4--|-4--4--4--4--4--4--4--4--|
E|-------------------------|-------------------------|-------------------------|-------------------------|

E|-------------------------|-------------------------|-------------------------|-------------------------|
B|-------------------------|-------------------------|-------------------------|-------------------------|
G|-6--6--6--6--6--6--6--6--|-6--6--6--6--6--6--6--6--|-6--6--6--6--6--6--6--6--|-6--6--6--6--6--6--6--6--|
D|-------------------------|-------------------------|-------------------------|-------------------------|
A|-4--4--4--4--4--4--4--4--|-4--4--4--4--4--4--4--4--|-4--4--4--4--4--4--4--4--|-4--4--4--4--4--4--4--4--|
E|-------------------------|-------------------------|-------------------------|-------------------------|

E|-------------------------|-------------------------|
B|-------------------------|-------------------------|
G|-------------------------|-------------------------|
D|-------------------------|-------------------------|
A|-4~----------------------|-2~---------4~-----------|
E|-2~----------------------|-0~---------5~-----------|

[Riff Interlude 2]
E|---------------------------|----------------------------|-------------------------|------------------------|
B|---------------------------|----------------------------|-------------------------|------------------------|
G|-7~-------7--7---6~-----6\-|-4~-------------------------|-------------------------|------------------------|
D|-0~-------0--0---0~-----0\-|-0~----4--4h5---------------|-2~--------2--2----------|------------------------|
A|---------------------------|--------------5~---5--5--5--|-5~--------5--5--4~---4\-|-2~-------4--4h5--4~-4/-|
E|-7~----7--7--7---7~-----7\-|-3~----------------3--3--3--|-2~-----2--2--2--2~---2\-|-0~----0----------5~-5/-|

E|---------------------------|----------------------------|-------------------------|------------------------|
B|---------------------------|----------------------------|-------------------------|------------------------|
G|-7~-------7--7---6~-----6\-|-4~-------------------------|-------------------------|------------------------|
D|-0~-------0--0---0~-----0\-|-0~----4--4h5---------------|-2~--------2--2----------|------------------------|
A|---------------------------|--------------5~---5--5--5--|-5~--------5--5--4~---4\-|-2~-------4--4h5--4~-4/-|
E|-7~----7--7--7---7~-----7\-|-3~----------------3--3--3--|-2~-----2--2--2--2~---2\-|-0~----0----------5~-5/-|

E|---------------------------|----------------------------|-------------------------|------------------------|
B|---------------------------|----------------------------|-------------------------|------------------------|
G|-7~-------7--7---6~-----6\-|-4~-------------------------|-------------------------|------------------------|
D|-0~-------0--0---0~-----0\-|-0~----4--4h5---------------|-2~--------2--2----------|------------------------|
A|---------------------------|--------------5~---5--5--5--|-5~--------5--5--4~---4\-|-2~-------4--4h5--4~-4/-|
E|-7~----7--7--7---7~-----7\-|-3~----------------3--3--3--|-2~-----2--2--2--2~---2\-|-0~----0----------5~-5/-|

E|---------------------------|----------------------------|-------------------------|------------------------|
B|---------------------------|----------------------------|-------------------------|------------------------|
G|-7~-------7--7---6~-----6\-|-4~-------------------------|-------------------------|------------------------|
D|-0~-------0--0---0~-----0\-|-0~----4--4h5---------------|-2~--------2--2----------|------------------------|
A|---------------------------|--------------5~---5--5--5--|-5~--------5--5--4~---4\-|-2~-------4--4h5--4~-4/-|
E|-7~----7--7--7---7~-----7\-|-3~----------------3--3--3--|-2~-----2--2--2--2~---2\-|-0~----0----------5~-5/-|

[Riff] 
"Not far away the shooter holed up in a hotel..." (4:40)
E|---------------------------|----------------------------|-------------------------|------------------------|
B|---------------------------|----------------------------|-------------------------|------------------------|
G|-7~-------7--7---6~-----6\-|-4~-------------------------|-------------------------|------------------------|
D|-0~-------0--0---0~-----0\-|-0~----4--4h5---------------|-2~--------2--2----------|------------------------|
A|---------------------------|--------------5~---5--5--5--|-5~--------5--5--4~---4\-|-2~-------4--4h5--4~-4/-|
E|-7~----7--7--7---7~-----7\-|-3~----------------3--3--3--|-2~-----2--2--2--2~---2\-|-0~----0----------5~-5/-|

E|---------------------------|----------------------------|-------------------------|------------------------|
B|---------------------------|----------------------------|-------------------------|------------------------|
G|-7~-------7--7---6~-----6\-|-4~-------------------------|-------------------------|------------------------|
D|-0~-------0--0---0~-----0\-|-0~----4--4h5---------------|-2~--------2--2----------|------------------------|
A|---------------------------|--------------5~---5--5--5--|-5~--------5--5--4~---4\-|-2~-------4--4h5--4~-4/-|
E|-7~----7--7--7---7~-----7\-|-3~----------------3--3--3--|-2~-----2--2--2--2~---2\-|-0~----0----------5~-5/-|

E|-------------------------|-------------------------|-------------------------|-------------------------|
B|-12-12-12-12-12-12-12-12-|-12-12-12-12-12-12-12-12-|-12-12-12-12-12-12-12-12-|-12-12-12-12-12-12-12-12-|
G|-------------------------|-------------------------|-------------------------|-------------------------|
D|-9--9--9--9--9--9--9--9--|-9--9--9--9--9--9--9--9--|-9--9--9--9--9--9--9--9--|-9--9--9--9--9--9--9--9--|
A|-------------------------|-------------------------|-------------------------|-------------------------|
E|-------------------------|-------------------------|-------------------------|-------------------------|

[Riff] 
"And notified the authorities..." (5:22)
(Gtr 1):
E|-------------------------|-------------------------|-------------------------|-------------------------|
B|-12-12-12-12-12-12-12-12-|-12-12-12-12-12-12-12-12-|-12-12-12-12-12-12-12-12-|-12-12-12-12-12-12-12-12-|
G|-------------------------|-------------------------|-------------------------|-------------------------|
D|-9--9--9--9--9--9--9--9--|-9--9--9--9--9--9--9--9--|-9--9--9--9--9--9--9--9--|-9--9--9--9--9--10-10-10-|
A|-------------------------|-------------------------|-------------------------|-------------------------|
E|-------------------------|-------------------------|-------------------------|-------------------------|

(Gtr 2):
E|-------------------------|-------------------------|-------------------------|-------------------------|
B|-------------------------|-------------------------|-------------------------|-------------------------|
G|-------------------------|-------------------------|-------------------------|-------------------------|
D|-2~----------------------|-------------------------|-------------------------|-------------------------|
A|-2~----------------------|----3~-------------------|-3~----------------------|-------------------------|
E|-0~----------------------|----0~-------------------|-5~----------------------|-------------------------|

(Gtr 1):
E|-------------------------|-------------------------|-------------------------|-------------------------|
B|-12-12-12-12-12-12-12-12-|-12-12-12-12-12-12-12-12-|-12-12-12-12-12-12-12-12-|-12-12-12-12-12-12-12-12-|
G|-------------------------|----11-11-11-11-11-11-11-|-------------------------|----------------11-11-11-|
D|-9--9--9--9--9--9--9--9--|-9--9--9--9--9--9--9--9--|-9--9--9--9--9--9--9--9--|-9--9--9--9--9--9--9--9--|
A|-------------------------|-------------------------|-------------------------|-------------------------|
E|-------------------------|-------------------------|-------------------------|-------------------------|

(Gtr 2):
E|-------------------------|-------------------------|-------------------------|-------------------------|
B|-------------------------|-------------------------|-------------------------|-------------------------|
G|-------------------------|-------------------------|-------------------------|-------------------------|
D|-2~----------------------|----4~-------------------|-------------------------|----------------4~-------|
A|-2~----------------------|----2~-------------------|-3~----------------------|----------------2~-------|
E|-0~----------------------|----3~-------------------|-5~----------------------|----------------3~-------|

(Gtr 1):
E|-------------------------|-------------------------|-------------------------|-------------------------|
B|-12-12-12-12-12-12-12-12-|-12-12-12-12-12-12-12-12-|-12-12-12-12-12-12-12-12-|-12-12-12-12-12-12-12-12-|
G|-------------------------|-------------------------|-------------------------|-------------------------|
D|-9--9--9--9--9--9--9--9--|-9--9--9--9--9--9--9--9--|-9--9--9--9--9--9--9--9--|-9--9--9--9--9--10-10-10-|
A|-------------------------|-------------------------|-------------------------|-------------------------|
E|-------------------------|-------------------------|-------------------------|-------------------------|

(Gtr 2):
E|-------------------------|-------------------------|-------------------------|-------------------------|
B|-------------------------|-------------------------|-------------------------|-------------------------|
G|-------------------------|-------------------------|-------------------------|-------------------------|
D|-2~----------------------|-------------------------|-------------------------|-------------------------|
A|-2~----------------------|----3~-------------------|-3~----------------------|-------------------------|
E|-0~----------------------|----0~-------------------|-5~----------------------|-------------------------|

(Gtr 1):
E|-------------------------|-------------------------|-------------------------|-------------------------|
B|-12-12-12-12-12-12-12-12-|-12-12-12-12-12-12-12-12-|-12-12-12-12-12-12-12-12-|-12-12-12-12-12-12-12-12-|
G|-------------------------|----11-11-11-11-11-11-11-|-------------------------|----------------11-11-11-|
D|-9--9--9--9--9--9--9--9--|-9--9--9--9--9--9--9--9--|-9--9--9--9--9--9--9--9--|-9--9--9--9--9--9--9--9--|
A|-------------------------|-------------------------|-------------------------|-------------------------|
E|-------------------------|-------------------------|-------------------------|-------------------------|

(Gtr 2):
E|-------------------------|-------------------------|-------------------------|-------------------------|
B|-------------------------|-------------------------|-------------------------|-------------------------|
G|-------------------------|-------------------------|-------------------------|-------------------------|
D|-2~----------------------|----4~-------------------|-------------------------|----------------4~-------|
A|-2~----------------------|----2~-------------------|-3~----------------------|----------------2~-------|
E|-0~----------------------|----3~-------------------|-5~----------------------|----------------3~-------|

(Gtr 1):
E|-------------------------|-------------------------|-------------------------|-------------------------|
B|-12-12-12-12-12-12-12-12-|-12-12-12-12-12-12-12-12-|-12-12-12-12-12-12-12-12-|-12-12-12-12-12-12-12-12-|
G|-------------------------|-------------------------|-------------------------|-------------------------|
D|-9--9--9--9--9--9--9--9--|-9--9--9--9--9--9--9--9--|-9--9--9--9--9--9--9--9--|-9--9--9--9--9--10-10-10-|
A|-------------------------|-------------------------|-------------------------|-------------------------|
E|-------------------------|-------------------------|-------------------------|-------------------------|

(Gtr 2):
E|-------------------------|-------------------------|-------------------------|-------------------------|
B|-------------------------|-------------------------|-------------------------|-------------------------|
G|-------------------------|-------------------------|-------------------------|-------------------------|
D|-2~----------------------|-------------------------|-------------------------|-------------------------|
A|-2~----------------------|----3~-------------------|-3~----------------------|-------------------------|
E|-0~----------------------|----0~-------------------|-5~----------------------|-------------------------|

(Gtr 1):
E|-------------------------|-------------------------|-------------------------|-------------------------|
B|-12-12-12-12-12-12-12-12-|-12-12-12-12-12-12-12-12-|-12-12-12-12-12-12-12-12-|-12-12-12-12-12-12-12-12-|
G|-------------------------|----11-11-11-11-11-11-11-|-------------------------|----------------11-11-11-|
D|-9--9--9--9--9--9--9--9--|-9--9--9--9--9--9--9--9--|-9--9--9--9--9--9--9--9--|-9--9--9--9--9--9--9--9--|
A|-------------------------|-------------------------|-------------------------|-------------------------|
E|-------------------------|-------------------------|-------------------------|-------------------------|

(Gtr 2):
E|-------------------------|-------------------------|-------------------------|-------------------------|
B|-------------------------|-------------------------|-------------------------|-------------------------|
G|-------------------------|-------------------------|-------------------------|-------------------------|
D|-2~----------------------|----4~-------------------|-------------------------|----------------4~-------|
A|-2~----------------------|----2~-------------------|-3~----------------------|----------------2~-------|
E|-0~----------------------|----3~-------------------|-5~----------------------|----------------3~-------|

(Gtr 1):
E|-------------------------|-------------------------|-------------------------|-------------------------|
B|-12-12-12-12-12-12-12-12-|-12-12-12-12-12-12-12-12-|-12-12-12-12-12-12-12-12-|-12-12-12-12-12-12-12-12-|
G|-------------------------|-------------------------|-------------------------|-------------------------|
D|-9--9--9--9--9--9--9--9--|-9--9--9--9--9--9--9--9--|-9--9--9--9--9--9--9--9--|-9--9--9--9--9--10-10-10-|
A|-------------------------|-------------------------|-------------------------|-------------------------|
E|-------------------------|-------------------------|-------------------------|-------------------------|

(Gtr 2):
E|-------------------------|-------------------------|-------------------------|-------------------------|
B|-------------------------|-------------------------|-------------------------|-------------------------|
G|-------------------------|-------------------------|-------------------------|-------------------------|
D|-2~----------------------|-------------------------|-------------------------|-------------------------|
A|-2~----------------------|----3~-------------------|-3~----------------------|-------------------------|
E|-0~----------------------|----0~-------------------|-5~----------------------|-------------------------|

(Gtr 1):
E|-------------------------|-------------------------|
B|-12-12-12-12-12-12-12-12-|-12-12-12-12-12-12-12-12-|
G|-------------------------|----11-11-11-11-11-11-11-|
D|-9--9--9--9--9--9--9--9--|-9--9--9--9--9--9--9--9--|
A|-------------------------|-------------------------|
E|-------------------------|-------------------------|

(Gtr 2):
E|-------------------------|-------------------------|
B|-------------------------|-------------------------|
G|-------------------------|-------------------------|
D|-2~----------------------|----4~-------5~----------|
A|-2~----------------------|----2~-------3~----------|
E|-0~----------------------|----3~-------------------|

[Riff] "Can I still get into heaven if I kill myself?..." (6:22)
(Gtr 1):
E|-------------------------|-------------------------|-------------------------|-------------------------|
B|-12-12-12-12-12-12-12-12-|-12-12-12-12-12-12-12-12-|-12-12-12-12-12-12-12-12-|-12-12-12-12-12-12-12-12-|
G|-------------------------|-------------------------|-------------------------|-------------------------|
D|-9--9--9--9--9--9--9--9--|-9--9--9--9--9--9--9--9--|-9--9--9--9--9--9--9--9--|-9--9--9--9--9--10-10-10-|
A|-------------------------|-------------------------|-------------------------|-------------------------|
E|-------------------------|-------------------------|-------------------------|-------------------------|

(Gtr 2):
E|-------------------------|-------------------------|-------------------------|-------------------------|
B|-------------------------|-------------------------|-------------------------|-------------------------|
G|-------------------------|-------------------------|-------------------------|-------------------------|
D|-2-----------------------|-------------------------|-------------------------|-------------------------|
A|-2-----------------------|----3--------------------|-3-----------------------|-------------------------|
E|-0-----------------------|----0--------------------|-5-----------------------|-------------------------|

(Gtr 1):
E|-------------------------|-------------------------|-------------------------|-------------------------|
B|-12-12-12-12-12-12-12-12-|-12-12-12-12-12-12-12-12-|-12-12-12-12-12-12-12-12-|-12-12-12-12-12-12-12-12-|
G|-------------------------|----11-11-11-11-11-11-11-|-------------------------|----------------11-11-11-|
D|-9--9--9--9--9--9--9--9--|-9--9--9--9--9--9--9--9--|-9--9--9--9--9--9--9--9--|-9--9--9--9--9--9--9--9--|
A|-------------------------|-------------------------|-------------------------|-------------------------|
E|-------------------------|-------------------------|-------------------------|-------------------------|

(Gtr 2):
E|-------------------------|-------------------------|-------------------------|-------------------------|
B|-------------------------|-------------------------|-------------------------|-------------------------|
G|-------------------------|-------------------------|-------------------------|-------------------------|
D|-2-----------------------|----4--------------------|-------------------------|-------------------------|
A|-2-----------------------|----2--------------------|-3~----------------------|-------------------------|
E|-0-----------------------|----3--------------------|-5~----------------------|-------------------------|

(Gtr 1):
E|-------------------------|-------------------------|-------------------------|-------------------------|
B|-12-12-12-12-12-12-12-12-|-12-12-12-12-12-12-12-12-|-12-12-12-12-12-12-12-12-|-12-12-12-12-12-12-12-12-|
G|-------------------------|-------------------------|-------------------------|-------------------------|
D|-9--9--9--9--9--9--9--9--|-9--9--9--9--9--9--9--9--|-9--9--9--9--9--9--9--9--|-9--9--9--9--9--10-10-10-|
A|-------------------------|-------------------------|-------------------------|-------------------------|
E|-------------------------|-------------------------|-------------------------|-------------------------|

(Gtr 2):
E|-------------------------|-------------------------|-------------------------|-------------------------|
B|-------------------------|-------------------------|-------------------------|-------------------------|
G|-------------------------|-------------------------|-------------------------|-------------------------|
D|-2-----------------------|-------------------------|-------------------------|-------------------------|
A|-2-----------------------|----3--------------------|-3-----------------------|-------------------------|
E|-0-----------------------|----0--------------------|-5-----------------------|-------------------------|

(Gtr 1):
E|-------------------------|-------------------------|-------------------------|-------------------------|
B|-12-12-12-12-12-12-12-12-|-12-12-12-12-12-12-12-12-|-12-12-12-12-12-12-12-12-|-12-12-12-12-12-12-12-12-|
G|-------------------------|----11-11-11-11-11-11-11-|-------------------------|-------------------------|
D|-9--9--9--9--9--9--9--9--|-9--9--9--9--9--9--9--9--|-9--9--9--9--9--9--9--9--|-9--9--9--9--9--9--9--9--|
A|-------------------------|-------------------------|-------------------------|-------------------------|
E|-------------------------|-------------------------|-------------------------|-------------------------|

(Gtr 2):
E|-------------------------|-------------------------|-------------------------|-------------------------|
B|-------------------------|-------------------------|-------------------------|-------------------------|
G|-------------------------|-------------------------|-------------------------|-------------------------|
D|-2-----------------------|----4--------------------|-------------------------|-------------------------|
A|-2-----------------------|----2--------------------|-3~----------------------|----3--3--3--3--3--3--3--|
E|-0-----------------------|----3--------------------|-5~----------------------|----5--5--5--5--5--5--5--|


*****************************

| h   hammer-on
| ~   hold / vibrato
| /   slide up
\ \   slide down

*****************************

            
            
Suggest correction
Creating personal tab
Creating personal tab
You can edit any tab online and save it as your Personal.

You can edit, replace or remove any tab part or add personal notes – all changes will be seen only by you.

Personal tabs can be accessed anytime from any device, even offline.
Learn more »
Give kudos to tab author, rate the tab!
1 2 3 4 5
comments
print report bad tab
guest
You may want to rate the tab now too:
select rating
Wanna post a correction for this tab? Suggest correction