Oops, an error
Loading. Please wait.

Lluvia tab

version 2
version 2

Whole song

34 views 3 this week
no commentswrite comment
1 2 3 4 5
3 more votes to show rating
add to favorites
×
Save as Personal and add changes to this tab that will be seen only by you. Learn more ›
×
You can save this tab as Personal to edit and correct it or add notes. All changes will be seen only by you. Learn more »
launch autoscroll
font size
0
reset
how to read this tab
guitar tuner
edit
Autoscroll
slow
fast
+/-
esc
set tempo
stop
Riff 1:
e--------5--7------------------5--5-------|
B--5--8--------5---------5--8--------8----|
G------------------(x3)-------------------|
D-----------------------------------------|
A-----------------------------------------|
E-----------------------------------------|


G                C
Ella vive en un mundo irreal
Bm                  C
está perdida y no quiere escapar
Bb          Edim                   C
una promesa rota en sus brazos verás

Edim: xx232x

Riff 2:
      F       C       G
e------1--3-----0---------------|
B-----1--------1---3--1--0------|
G----2--------0----------0------|
D---3--------2-----------0------|
A--3--------3------------2------|
E------------------------3------|

G                 C
Cae la noche y empieza a llover
Bm              C
se pregunta dónde puede haber
Bb            Edim           D   Dsus4 D
algo que la haga volver a caer

 A caer

Riff 3:
e--------5--7--0-----------------------------5--5--3--|
B--5--8------------1/3-1-0-------------5--8-----------|
G--------------------------0-/2-(x3)------------------|
D-----------------------------------------------------|
A-----------------------------------------------------|
E-----------------------------------------------------|


Su piel es fría como el cristal   Riff 4
sus pupilas no ven más allá       Riff 5
de lo que unas monedas
pueden comprar

   Riff 4:     Riff 5:
e----------|-------------|
B---8p10---|---7--8------|
G---9------|---------7---|
D----------|-------------|
A----------|-------------|
E----------|-------------|

Riff 2


Caminando hacia ningún lugar   Riff 4
por las esquinas de bar en bar
esperando el momento           Riff 6
de volverla a encontrar

Riff 6:
e------------------------|
B---6-5------------------|
G-------7-5------(5)p7---|
D-------------7----------|
A------------------------|
E------------------------|


A encontrar

Riff 3 (el último 3 en 1ª cuerda no se toca)

Riff 7:
   G    D    G    D     C   Bb   C         D7        G
e--7--7--5--5--3--3--2--2--0--0-----------0---0-0/2-2/3--3-2-3--|
B--8-----7-----3-----3-----1-----3--3--1----1-1-1------------0--|
G--7-----7-----4-----2-----0-----3-----0----0-0-0/2----------0--|
D--------------------------------3-----2---------------------0--|
A------------------------------------------------------------2--|
E---------------------------------------------------------------|


 A la sombra de un viejo canal  Riff 4
jamás nadie la hizo temblar    Riff 5
pero hay noches de lluvia
que la han visto llorar

Riff 2

 Si algún día la ves por ahí    Riff 4
pregúntale si se acuerda de mí
dile que nunca la pude olvidar Riff 6

Riff 3 + Orchestra (como Riff 7 subiendo una nota de cada acorde)


Ella vive en un mundo irreal   Riff 4
jamás nadie la hizo temblar    Riff 5
pero hay noches de lluvia
que la han visto llorar

Riff 2


Gran canción y gran álbum de La Frontera.
Cualquier corrección o comentario que queráis hacer, enviádmelas a
frang32@

            
            
Suggest correction
Creating personal tab
Creating personal tab
You can edit any tab online and save it as your Personal.

You can edit, replace or remove any tab part or add personal notes – all changes will be seen only by you.

Personal tabs can be accessed anytime from any device, even offline.
Learn more »
Give kudos to tab author, rate the tab!
1 2 3 4 5
comments
print report bad tab
guest
Wanna post a correction for this tab? Suggest correction