Oops, an error
Loading. Please wait.

Las Olas tab

version 1
version 1

Whole song

by La Fuga
41 views 1 this week
no commentswrite comment
1 2 3 4 5
3 more votes to show rating
add to favorites
×
Save as Personal and add changes to this tab that will be seen only by you. Learn more ›
×
You can save this tab as Personal to edit and correct it or add notes. All changes will be seen only by you. Learn more »
launch autoscroll
font size
0
reset
how to read this tab
guitar tuner
edit
Autoscroll
slow
fast
+/-
esc
set tempo
stop
[Intro]
Distorsión
    MI            SI               DO#m            DO#m
e|-------------------------------|------------------------------------|
B|-------------------------------|------------------------------------|
G|-----9-9-9-9-------------------|---13-13-13-13--14-14-14-13--13-13--|
D|-----9-9-9-9----9-9-9-9--9-9---|------------------------------------| x3
A|-----7-7-7-7----9-9-9-9--9-9---|---11-11-11-11--12-12-12-11--11-11--|
E|----------------7-7-7-7--7-7---|------------------------------------|

    SI            SI                SI            SI
e|-------------------------------|-------------------------------|
B|-------------------------------|-------------------------------|
G|-------------------------------|-------------------------------|
D|-----9-9-9-9----9-9-9-9--9-9---|-----9-9-9-9----9-9-9-9--9-9---|
A|-----9-9-9-9----9-9-9-9--9-9---|-----9-9-9-9----9-9-9-9--9-9---|
E|-----7-7-7-7----7-7-7-7--7-7---|-----7-7-7-7----7-7-7-7--7-7---|


[Estrofa]
Limpio
   LA          SI            DO#m
e|------------------------|-----------------------------|
B|------------------------|-----------------------------|
G|------------------------|-----------------------------|
D|-----------------4------|-------6-----7--6-4---4s-6---|
A|--0---0---0--2-------2--|--4-4-----4---------7--------|
E|------------------------|-----------------------------|
   Ya noto como van llevándome las olas,
e|------------------------|-----------------------------|
B|------------------------|-----------------------------|
G|------------------------|-----------------------------|
D|-----------------4------|-------6-----7--6-4---4s-11--|
A|--0---0---0--2-------2--|--4-4-----4---------7--------|
E|------------------------|-----------------------------|
  después de una verbena viene la marea;

Distorsión
LA (x2)                     SI (x2)          DO#m (PM)
Y me ha pillado en la cama, hablando con mis penas,
LA (x2)                     MI  RE#
anoche me lió la luna llena.


[Puente]
    MI            SI               DO#m            DO#m
e|-------------------------------|------------------------------------|
B|-------------------------------|------------------------------------|
G|-----9-9-9-9-------------------|---13-13-13-13--14-14-14-13--13-13--|
D|-----9-9-9-9----9-9-9-9--9-9---|------------------------------------| x2
A|-----7-7-7-7----9-9-9-9--9-9---|---11-11-11-11--12-12-12-11--11-11--|
E|----------------7-7-7-7--7-7---|------------------------------------|


[Estrofa]
Limpio
    LA          SI           DO#m
e|------------------------|-----------------------------|
B|------------------------|-----------------------------|
G|------------------------|-----------------------------|
D|-----------------4------|-------6-----7--6-4---4s-6---|
A|--0---0---0--2-------2--|--4-4-----4---------7--------|
E|------------------------|-----------------------------|
   Ya noto como no funciona mi cabeza,
e|------------------------|-----------------------------|
B|------------------------|-----------------------------|
G|------------------------|-----------------------------|
D|-----------------4------|-------6-----7--6-4---4s-11--|
A|--0---0---0--2-------2--|--4-4-----4---------7--------|
E|------------------------|-----------------------------|
   que anoche me gritaba que se siente sola.

Distorsión
LA (x2)                   SI (x2)     DO#m (PM)
Y mientras yo, a mi bola, de ronda en ronda,
LA (x2)                   MI  RE#
apuré mis últimas neuronas.


[Estribillo]
    DO#m                           LA
e|------------------------------|------------------------------|
B|------------------------------|------------------------------|
G|--6-6-6-6-4-6---6-6-6-6-4-6---|--6-6-6-6-4-6---6-6-6-6-4-6---|
D|------------------------------|------------------------------|
A|------------------------------|------------------------------|
E|------------------------------|------------------------------|
    Anoche no fui yo,              fue el señor JB,

    MI                             SI
e|------------------------------|----------------------------------|
B|------------------------------|----------------------------------|
G|--9-9-9-9-8-9---9-9-9-9-8-9---|--11-11-11-11-9-11---11-11-11-9~--|
D|------------------------------|----------------------------------|
A|------------------------------|----------------------------------|
E|------------------------------|----------------------------------|
    que a última hora me engaño.

    DO#m                           LA
e|------------------------------|------------------------------|
B|------------------------------|------------------------------|
G|--6-6-6-6-4-6---6-6-6-6-4-6---|--9-9-9-9-8-9---9-9-9-9-8-9---|
D|------------------------------|------------------------------|
A|------------------------------|------------------------------|
E|------------------------------|------------------------------|
   La risa nos duró,              donde el chino, hasta las seis,

    MI
e|---------------------------------------|
B|---------------------------------------|
G|-13-13-13-13-11-13--13-13-13-13-11-13--|
D|---------------------------------------|
A|---------------------------------------|
E|---------------------------------------|
   y luego se marcho.

    SI
e|---------------------------------------|
B|---------------------------------------|
G|-14-14-14-14-13-14--14-14-14-14-13-14~-|
D|---------------------------------------|
A|---------------------------------------|
E|---------------------------------------|


DO#DO#m2)  LA(P.M.)  Do#m(x2)   SI(P.M.)  |
Se fue,             se fue,              |
DO#m(x2)  LA(P.M.)  SI                   | x2
se fue...                                |


[Solo]
    SI                        DO#m
e|------------------------------------------------------|
B|--12b-14-14-14-12b-14-14-14-12b-14-14-14-12b-14-14-14-|
G|------------------------------------------------------|
D|------------------------------------------------------|
A|------------------------------------------------------|
E|------------------------------------------------------|

    MI               LA
e|------------------------|
B|--17--16--14--12---14---|
G|------------------------|
D|------------------------|
A|------------------------|
E|------------------------|

    SI                        DO#m
e|------------------------------------------------------|
B|--12b-14-14-14-12b-14-14-14-14b-16-16-16-14b-16-16-16-|
G|------------------------------------------------------|
D|------------------------------------------------------|
A|------------------------------------------------------|
E|------------------------------------------------------|

    MI               MI
e|--------------14---16~---|
B|--17--16--17-------------|
G|-------------------------|
D|-------------------------|
A|-------------------------|
E|-------------------------|

    SI          DO#m                    MI            LA
e|--------------14-------------------|--12--11--9-----9----------|
B|--14-16-17~-------14~--------------|-------------12------------|
G|-----------------------------------|---------------------------|
D|-----------------------------------|---------------------------|
A|-----------------------------------|---------------------------|
E|-----------------------------------|---------------------------|

    SI          DO#m
e|-----------------------------------|
B|--------------12-9-7h-9p-7h-9p-7---|
G|--11b------------------------------|
D|-----------------------------------|
A|-----------------------------------|
E|-----------------------------------|

    MI                   MI
e|-------------------------------------------|
B|-------------------------------------------|
G|--------------11br-------------------------|
D|--11-14-11-14-------14-11-14-11----11------|
A|--------------------------------14---------|
E|-------------------------------------------|

[Estrofa]
Limpio
SI              LA                DO#m
Deambule por la casa y no me encontré,
SI              LA                DO#m
he invertido mi tiempo en recordar.
SI              LA                DO#m
Que, si hierve mi sangre, hay poco que hacer,
FA#               SI
dejarse perder, dejarse llevar.

Distorsión
DO#m                 LA
Me he quedado más colgado
                    DO#m
que un cuadro en su pared.
SI                LA
Me he quedado dormido
            DO#m
frente a un café
FA#                          SI
me han llevado las olas otra vez...


[Estribillo]
    DO#m                           LA
e|------------------------------|------------------------------|
B|------------------------------|------------------------------|
G|--6-6-6-6-4-6---6-6-6-6-4-6---|--6-6-6-6-4-6---6-6-6-6-4-6---|
D|------------------------------|------------------------------|
A|------------------------------|------------------------------|
E|------------------------------|------------------------------|
    Anoche no fui yo,              fue el señor JB,

    MI                             SI
e|------------------------------|----------------------------------|
B|------------------------------|----------------------------------|
G|--9-9-9-9-8-9---9-9-9-9-8-9---|--11-11-11-11-9-11---11-11-11-9~--|
D|------------------------------|----------------------------------|
A|------------------------------|----------------------------------|
E|------------------------------|----------------------------------|
    que a última hora me engaño.

    DO#m                           LA
e|------------------------------|------------------------------|
B|------------------------------|------------------------------|
G|--6-6-6-6-4-6---6-6-6-6-4-6---|--9-9-9-9-8-9---9-9-9-9-8-9---|
D|------------------------------|------------------------------|
A|------------------------------|------------------------------|
E|------------------------------|------------------------------|
   La risa nos duró,              donde el chino, hasta las seis,

    MI
e|---------------------------------------|
B|---------------------------------------|
G|-13-13-13-13-11-13--13-13-13-13-11-13--|
D|---------------------------------------|
A|---------------------------------------|
E|---------------------------------------|
   y luego se marcho.

   SI
e|---------------------------------------|
B|---------------------------------------|
G|-14-14-14-14-13-14--14-14-14-14-13-14~-|
D|---------------------------------------|
A|---------------------------------------|
E|---------------------------------------|

DO#DO#m2)  LA(P.M.)  Do#m(x2)   SI(P.M.)  |
Se fue,             se fue,              |
DO#m(x2)  LA(P.M.)  SI                   | x2
se fue...                                |

            
            
Suggest correction
Creating personal tab
Creating personal tab
You can edit any tab online and save it as your Personal.

You can edit, replace or remove any tab part or add personal notes – all changes will be seen only by you.

Personal tabs can be accessed anytime from any device, even offline.
Learn more »
Give kudos to tab author, rate the tab!
1 2 3 4 5
comments
print report bad tab
guest
Wanna post a correction for this tab? Suggest correction