Oops, an error
Loading. Please wait.

Amiga tab

40 views 1 this week
no commentswrite comment
1 2 3 4 5
3 more votes to show rating
add to favorites
×
Save as Personal and add changes to this tab that will be seen only by you. Learn more ›
×
You can save this tab as Personal to edit and correct it or add notes. All changes will be seen only by you. Learn more »
launch autoscroll
font size
0
reset
how to read this tab
guitar tuner
edit
Autoscroll
slow
fast
+/-
esc
set tempo
stop
intro:

1|------------------------------------------10-10-10-10-10--10--11-----|
2|-11-10------11-10-------11-10-----------11------------------13-------|
3|-------12---------12----------12------12-----------------------------|
4|---------12----------12----------12-12-------------------------------|
5|---------------------------------------------------------------------|
6|---------------------------------------------------------------------|

1|-11-10-------11-10-------11-10-------------10-11-11-11-11-11--11-10-13--|
2|-------13-10-------13-10-------13-10--10-13-----------------------------|
3|------------------------------------------------------------------------|
4|------------------------------------------------------------------------|
5|------------------------------------------------------------------------|
6|------------------------------------------------------------------------|

1|-----------------------------------------10--------------------------|
2|-13-13-13-13-11--10-13-11-10-13--10-11-13----13-11-13-11-10----------|
3|-------------------------------------------------------------12------|
4|---------------------------------------------------------------------|
5|---------------------------------------------------------------------|
6|---------------------------------------------------------------------|


Gm                                    Cm      
Amiga, no sabes como yo en silencio aqui te deseo
     F                                 Bb
me muero por besar tus labios y tocar tu cuerpo
Cm                    D                Gm
quisiera tenerte en mi cama y comerte a besos.

Amiga, a nadie puedo yo contarle lo que por ti siento
porque tu amor esta prohibido tu ya tienes dueño
estas casada con mi amigo y no puedo yo hacerlo.

###estribillo###
       Cm    F                 Bb       Gm                 Cm   D             Gm
Y te deseeeeeo siempre en sileeeeencio, para que naaaaadie pueda saberlo
           Cm    F              Bb       Gm              Cm   D             Gm
Muy confundiiiido, por ti me encueeeeeentro, no se que paaaaasa con mis sentimientos.

###estribillo###


~~~REPITE TODO~~~


AGUANTE LA NUEVA LUNA!!!
Cualquier duda, consulta o sugerencia, al mail
-- El MaGo ---

            
            
Suggest correction
Creating personal tab
Creating personal tab
You can edit any tab online and save it as your Personal.

You can edit, replace or remove any tab part or add personal notes – all changes will be seen only by you.

Personal tabs can be accessed anytime from any device, even offline.
Learn more »
Give kudos to tab author, rate the tab!
1 2 3 4 5
comments
print report bad tab
guest
Wanna post a correction for this tab? Suggest correction