Oops, an error
Loading. Please wait.

Como Olvidarla chords

35 views 1 this week
no commentswrite comment
1 2 3 4 5
3 more votes to show rating
add to favorites
×
Save as Personal and add changes to this tab that will be seen only by you. Learn more ›
×
You can save this tab as Personal to edit and correct it or add notes. All changes will be seen only by you. Learn more »
launch autoscroll
font size
0
reset
transpose
0
reset
display chords
guitar tuner
edit
Autoscroll
slow
fast
+/-
esc
set tempo
stop
Strumming
There is no strumming pattern for this song yet. and get +5 IQ
Intro 

(E - G#m - A - B)

1|----------------5s7-7-7----------------7-7-7----9-11-12-11-9---9--------------------------------------------------|
2|--------------7--------7---------------------12--------------12--12-10-9-10-9--------------------7-----------7----|
3|--9-9-9-9-8-9--9---------9-8-8-7-8-9-8----------------------------------------11-9-11-9-11-9-8-9-----8-8-8-9------|
4|---------------------------------------------------------------------------------------------------9----------9---|
5|------------------------------------------------------------------------------------------------------------------|
6|------------------------------------------------------------------------------------------------------------------|

(E - G#m - A - B)

1|----------------5s7-7-7----------------7-7-7----9-11-12-11-9---9----------------------------------------7--------|
2|--------------7--------7---------------------12--------------12--12-10-9-10-9--------------------7-----7-10-9-7--|
3|--9-9-9-9-8-9--9---------9-8-8-7-8-9-8----------------------------------------11-9-11-9-11-9-8-9------8----------|
4|---------------------------------------------------------------------------------------------------9-9-----------|
5|-----------------------------------------------------------------------------------------------------------------|
6|-----------------------------------------------------------------------------------------------------------------|

-el mago-
E                  G#m
Como.., como voy a olvidarla?
      C#m      
si su imagen se quedo  grabada,
             G#m
como un tatuaje dentro de mi alma.
           A
y aunque trate de curar mi herida
           E
con otras caricias no puedo arrancarlas
      F#m
desconforme se pasan los dias
                        B
crece mas mi herida y mas dias la extraña.

-el chino-

Como..., como aceptar q ya no es mia
y que la he perdido
si con ella dormia mis sueños,
nada me faltaba y el mundo era mio,

y ahora q no esta conmigo,
lo he perdido todo me siento vacio 
como voy a hacer para olvidarla,
si ella esta en el aire que ella y yo respiro


C#m
si todo la recuerda
      F#m
y mi mente no concibe
     B                  
porque no dejo huellas
      E                   E - Eb - C# - B
a donde pudo irse?

B
Porque me estoy volviendo loco?
         A
porque me dejo tan solo?
        E
no lo entiendo

 
Y todo la recuerda
y muriendo estoy por verla
se hacen eternos los minutos
me esta matado no tenerla

como hare para olvidarla?
si vivo para recordarla
no lo entiendo


se repite todo.
solo de guitarra del mago 
final.

AGUANTE LA NUEVA LUNA!!!
Cualquier duda, o para intercambiar tabs, al mail
-- El MaGo --

            
            
Suggest correction
Creating personal tab
Creating personal tab
You can edit any tab online and save it as your Personal.

You can edit, replace or remove any tab part or add personal notes – all changes will be seen only by you.

Personal tabs can be accessed anytime from any device, even offline.
Learn more »
Give kudos to tab author, rate the tab!
1 2 3 4 5
comments
print report bad tab
guest
Wanna post a correction for this tab? Suggest correction