Oops, an error
Loading. Please wait.

Gracias tab

57 views 1 this week
no commentswrite comment
1 2 3 4 5
3 more votes to show rating
add to favorites
×
Save as Personal and add changes to this tab that will be seen only by you. Learn more ›
×
You can save this tab as Personal to edit and correct it or add notes. All changes will be seen only by you. Learn more »
launch autoscroll
font size
0
reset
how to read this tab
guitar tuner
edit
Autoscroll
slow
fast
+/-
esc
set tempo
stop
E
'Bueno ahora vamos a cantarle a
toda la gente que nos sigue, nos
apoya y nos quiere, con todo el
corazon les decimos GRACIAS'

1|-7---------7---------7-7-7-7--7-9-7------------------------9---------------
2|---10-9-10---10-9-10----------------10-9-7-9-10-9-7-9-10-10--10------------
3|---------------------------------------------------------------------------
4|---------------------------------------------------------------------------
5|---------------------------------------------------------------------------
6|---------------------------------------------------------------------------

1|-9-7---7-9-7---7-9-9-9-9--14-12-11-12-12-12-----------9-------7------------
2|-----10------10-----------------------------9-9-10-12--12----9--10-9-7-----
3|------------------------------------------------------------9--------------
4|-----------------------------------------------------------9---------------
5|---------------------------------------------------------------------------
6|---------------------------------------------------------------------------

'Canta mi pais'

1|-7---------7---------7-7-7-7--7-9-7------------------------9---------------
2|---10-9-10---10-9-10----------------10-9-7-9-10-9-7-9-10-10--10------------
3|---------------------------------------------------------------------------
4|---------------------------------------------------------------------------
5|---------------------------------------------------------------------------
6|---------------------------------------------------------------------------

1|-9999-7---7-9-7---7-9-9-9-9--14-12-11-12-12-12-----------9-------7----------
2|--------10------10-----------------------------9-9-10-12--12----9--10-9-7---
3|---------------------------------------------------------------9----------9-
4|--------------------------------------------------------------9-------------
5|----------------------------------------------------------------------------
6|----------------------------------------------------------------------------

E                                  C#m
Hoy no voy a cantarle a la que me dejo
F#m                                  B
ni al amigo que sufre por un sentimiento
E                                C#m
queremos regalarles hoy esta cancion
F#m                                 B
por no dejarnos solos en ningun momento
         A                   B
porque ustedes son muy importantes
         G#m                    C#m
son una parte grande en nuestro show
      F#m                  B                E
para todos ustedes les cantamos con el corazon

E           C#m
Graciaaaas
                        G#m
por el apoyo y por el aguante
         A                    B
La Nueva Luna suena en todas partes
           F#m                    B
gracias a ustedes, gracias de verdad
E           C#m
Graciaaaas
                        G#m
por el apoyo en todo momento
           A                    B
porque nos siguen como un sentimiento
        F#m                 B
y porque nunca dejen de cantar

1|-7---------7---------7-7-7-7--7-9-7------------------------9---------------
2|---10-9-10---10-9-10----------------10-9-7-9-10-9-7-9-10-10--10------------
3|---------------------------------------------------------------------------
4|---------------------------------------------------------------------------
5|---------------------------------------------------------------------------
6|---------------------------------------------------------------------------

1|-9-7---7-9-7---7-9-9-9-9--14-12-11-12-12-12-----------9-------7------------
2|-----10------10-----------------------------9-9-10-12--12----9--10-9-7-----
3|------------------------------------------------------------9--------------
4|-----------------------------------------------------------9---------------
5|---------------------------------------------------------------------------
6|---------------------------------------------------------------------------

1|-7---------7---------7-7-7-7--7-9-7------------------------9---------------
2|---10-9-10---10-9-10----------------10-9-7-9-10-9-7-9-10-10--10------------
3|---------------------------------------------------------------------------
4|---------------------------------------------------------------------------
5|---------------------------------------------------------------------------
6|---------------------------------------------------------------------------

1|-9-7---7-9-7---7-9-9-9-9--14-12-11-12-12-12-----------9-------7------------
2|-----10------10-----------------------------9-9-10-12--12----9--10-9-7-----
3|------------------------------------------------------------9----------9----
4|-----------------------------------------------------------9---------------
5|---------------------------------------------------------------------------
6|---------------------------------------------------------------------------

E                                  C#m
Hoy no voy a cantarle a la que me dejo
F#m                                  B
ni al amigo que sufre por un sentimiento
E                                C#m
queremos regalarles hoy esta cancion
F#m                                 B
por no dejarnos solos en ningun momento
         A                   B
porque ustedes son muy importantes
         G#m                    C#m
son una parte grande en nuestro show
      F#m                  B                E
para todos ustedes les cantamos con el corazon

E           C#m
Graciaaaas
                        G#m
por el apoyo y por el aguante
         A                    B
La Nueva Luna suena en todas partes
           F#m                    B
gracias a ustedes, gracias de verdad
E           C#m
Graciaaaas
                        G#m
por el apoyo en todo momento
           A                    B
porque nos siguen como un sentimiento
        F#m                 B
y porque nunca dejen de cantar
E           C#m
Graciaaaas
                        G#m
por el apoyo y por el aguante
         A                    B
La Nueva Luna suena en todas partes
           F#m                    B
gracias a ustedes, gracias de verdad
E           C#m
Graciaaaas
                        G#m
por el apoyo en todo momento
           A                    B
porque nos siguen como un sentimiento
        F#m                 B
y porque nunca dejen de cantar
  E
gracias

            
            
Suggest correction
Creating personal tab
Creating personal tab
You can edit any tab online and save it as your Personal.

You can edit, replace or remove any tab part or add personal notes – all changes will be seen only by you.

Personal tabs can be accessed anytime from any device, even offline.
Learn more »
Give kudos to tab author, rate the tab!
1 2 3 4 5
comments
print report bad tab
guest
Wanna post a correction for this tab? Suggest correction