Oops, an error
Loading. Please wait.

Hecho En Argentina tab

34 views 1 this week
no commentswrite comment
1 2 3 4 5
3 more votes to show rating
add to favorites
×
Save as Personal and add changes to this tab that will be seen only by you. Learn more ›
×
You can save this tab as Personal to edit and correct it or add notes. All changes will be seen only by you. Learn more »
launch autoscroll
font size
0
reset
how to read this tab
guitar tuner
edit
Autoscroll
slow
fast
+/-
esc
set tempo
stop
intro:


1|------------------------9-7--7-9-7-7---------------7---------------------------------|
2|------7-7h9--9-7---------------------10-10-10-9-10--10---10-7-10-10-9-9-9-7-9-10-9---|
3|----9------------9-8---8-------------------------------------------------------------|  
4|--9----------------------------------------------------------------------------------|
5|-------------------------------------------------------------------------------------|
6|-------------------------------------------------------------------------------------|

(hace dos veces y al finalizar la segunda) :

1|-------------9-7------------------------|
2|--9-7-----------------------------------|
3|------9-8--8-----------------6-8-9------|
4|--------------------10-10-10------------|
5|----------------------------------------|
6|----------------------------------------|


B        E  G#
No te vayas
       C#m
dale veni
           A
se que esta mal
          B
nuestro país
            E  G#         C#m 
pero algun diiiiia cambiara
         A                               B      
si te quedas podes luchar porque este es tu lugar

        E  G#         C#m             A          B                   
Dale vení, pensalo bien, si a donde vas, ni conoces
          E         G#             C#m      
tengamos Feeeeeeeeee, que un dia Dios
         A                B         E
nos mandará, del cielo alguna solucion

E
Argentina es tu pais
      A                     B
vos naciste y creciste aqui
             G#           C#m
aunque hay razon para marchar 
      A            B
Argentina es tu lugar
                  
Argentina es tu pais
vos naciste y creciste aqui
aunque hay razon para marchar 
      A          B           E
Argentina es tu casa, tu lugar

REPITE INTRO

(ahora repite acordes de las primeras estrofas)

Quedate aqui
no te vayas, que la argentina, hoy esta mal
tengamos Fé, que un dia Dios
nos mandará, del cielo alguna solucion

(REPITE ESTRIBILLO)


AGUANTE LA NUEVA LUNA!!!
Cualquier duda o para intercambiar tabs, al mail
-- El MaGo --

            
            
Suggest correction
Creating personal tab
Creating personal tab
You can edit any tab online and save it as your Personal.

You can edit, replace or remove any tab part or add personal notes – all changes will be seen only by you.

Personal tabs can be accessed anytime from any device, even offline.
Learn more »
Give kudos to tab author, rate the tab!
1 2 3 4 5
comments
print report bad tab
guest
Wanna post a correction for this tab? Suggest correction