Oops, an error
Loading. Please wait.

Quiero Ser Yo tab

36 views 1 this week
no commentswrite comment
1 2 3 4 5
3 more votes to show rating
add to favorites
×
Save as Personal and add changes to this tab that will be seen only by you. Learn more ›
×
You can save this tab as Personal to edit and correct it or add notes. All changes will be seen only by you. Learn more »
launch autoscroll
font size
0
reset
how to read this tab
guitar tuner
edit
Autoscroll
slow
fast
+/-
esc
set tempo
stop
intro:

1|------------------------------3----------------5-3---3-3h5-3------------|
2|--5-3-----------3-3h5-3---3-5---3------------3-----3----------1-0-------|
3|------5--------5--------5---------4--------4----------------------2-----|
4|--------5----5----------------------5----5-------------------------2----|
5|------------------------------------------------------------------------|
6|------------------------------------------------------------------------|


1|----------------------0------------1-------------3----3-----------------|
2|-----0-0h1-0----0-0h1------------1---1---------3------3--6-5-3----------|
3|---2----------2----------------2-------2-----4--------4-----------------|
4|-2---------------------------3-------------5--------5-------------------|
5|------------------------------------------------------------------------|
6|------------------------------------------------------------------------|

1|------------------------------3----------------5-3---3-3h5-3------------|
2|--5-3-----------3-3h5-3---3-5---3------------3-----3----------1-0-------|
3|------5--------5--------5---------4--------4----------------------2-----|
4|--------5----5----------------------5----5-------------------------2----|
5|------------------------------------------------------------------------|
6|------------------------------------------------------------------------|


1|----------------------0------------1---------------3--------------------|
2|-----0-0h1-0----0-0h1------------1---1-------------3--6-5-3-------------|
3|---2----------2----------------2-------2-----------4--------5-----------|
4|-2---------------------------3-----------5-------5----------------------|
5|------------------------------------------------------------------------|
6|------------------------------------------------------------------------|

C                    G
Siento que ya no eres la misma
F                C
te conocia yo hace tiempo
F                   C
si algo paso quiero saberlo
                     G
porque no estas igual.

Le he preguntado a tus amigas
dicen que ya no eres la misma
quiero saber hoy que te pasa
si tu amor me cambio,

F           G       C    G  C  
si tu amor me, cambio.


estribillo:
C
Quiero ser yo
                                    G
el que termine con todas tus dudas quiero ser yo
        Em                                   Am
el que te mime te cuide en las noches y te haga el amor
            F     G               C
quiero ser yoooooooo, quiero ser yo.

el complace todos tus deseos quiero ser yo
el que termine con todas tus ganas de hacer el amor
quiero ser yo, quiero ser yo


repite todo


AGUANTE LA NUEVA LUNA!!!
Cualquier duda, o para intercambiar tabs, al mail
-- El MaGo --

            
            
Suggest correction
Creating personal tab
Creating personal tab
You can edit any tab online and save it as your Personal.

You can edit, replace or remove any tab part or add personal notes – all changes will be seen only by you.

Personal tabs can be accessed anytime from any device, even offline.
Learn more »
Give kudos to tab author, rate the tab!
1 2 3 4 5
comments
print report bad tab
guest
Wanna post a correction for this tab? Suggest correction