Oops, an error
Loading. Please wait.

Si Te Vas tab

155 views 1 this week
no commentswrite comment
1 2 3 4 5
3 more votes to show rating
add to favorites
×
Save as Personal and add changes to this tab that will be seen only by you. Learn more ›
×
You can save this tab as Personal to edit and correct it or add notes. All changes will be seen only by you. Learn more »
launch autoscroll
font size
0
reset
how to read this tab
guitar tuner
edit
Autoscroll
slow
fast
+/-
esc
set tempo
stop
holas!!!este es el primer tema de la nueva luna que mandamos
esta completo en todo sentido...asi que espero que los disfruten a full!
dudas...(larry_108@

Intro:

 1.------------------------------------------------------------------------------
 2.------------1-----------------------------------------1-----1-----1---1-1/3-3-
 3.-0-2-3/3/2-0--3-2-2/3-2-0-2/3--2-0-0----0-2-3-2/3/2-0---3-2---3-2---3---------
 4.------------------------------------4-0---------------------------------------
acordes despues del punteo Gm,Fa,Mib,Cm,D7 x2...despues hace D7/D,D7/D

Verso:
 Gm
 No te vayas nunca Que yo sin ti
                 Cm
 Seré una lagrima salada
D7                      Gm
 Seré una hoguera que se apaga
      D7
 En el silencio de la nada

 Gm
 No te vayas nunca Que yo sin ti
                Cm
 Seré una noche sin estrellas
D7                   Gm
 Seré un camino entre tinieblas
       D7                   Gm       G7
 Y se derrumbaría mi vida si te vas


 Estribillo:
      Cm                                      Gm
 Si te vas  Pondré una flor en un jarrón por ti
                                     D7
 Me perderé con tu recuerdo Hasta encontrar
                        Gm   G7(den golpes secos para abajo)
 Algún amigo a quien hablarle de tiiii

    Cm                                    Gm
 Si te vas...No me preguntes si te ame o no
                              D7
 Tan solo escucha esta canción de amor
                        Gm   G7
 Y entenderás lo que sentí por tiiii

 Solo...

 2.------------------------------------------------------10--10--10-10-
 3.-3/5-55--5-7-88-77-55-------7-5-----5-77-55-------5----------------- continua abajo
 4.----------------------8-7-8-----8--8-------88-7-8---7----7---7------

 2.
 3.----55-------5-------7777777-----------
 4.7-8----8-7-8---8-7-8---------5-4-3-3-3-

 1.8888888888-101010101010-111111111111-131313131313-15151515-17171717 sigue abajo

 1.18181818181818181818-17171717-15 esto es solo con pua desde el(888..)

 1.15/10--8/10-13-12-11-10--10-10-10--10-13-12-11-10--10-10-10-
 2.------------------------------------------------------------ continua abajo
 3.------------------------------------------------------------

 2.11-10-11--9-9-------6---6---6-
 3.------------------------------
 4.--------------5-4-3---3---3---

 Acordes Solo: Cm,Gm,D,Gm,G7 x 2

 Estribillo de nuevo...

 Intro...Gm,FA,MIb,DOm,RE7 x4

 Fin!!!!!

 Bueno ahi esta el tema les recomendamos toquen con pua y suena excelente
 es el primer tema que mandamos con soloy el primero de la nueva luna...
 se lo dedico de mi parte a maria de los angeles...que sino sabria algun dia
 de ella no se que haria....saludos!!!

            
            
Suggest correction
Creating personal tab
Creating personal tab
You can edit any tab online and save it as your Personal.

You can edit, replace or remove any tab part or add personal notes – all changes will be seen only by you.

Personal tabs can be accessed anytime from any device, even offline.
Learn more »
Give kudos to tab author, rate the tab!
1 2 3 4 5
comments
print report bad tab
guest
Wanna post a correction for this tab? Suggest correction