Oops, an error
Loading. Please wait.

Solos En La Playa tab

version 1
version 1

Whole song

Interactive

55 views 1 this week
no commentswrite comment
1 2 3 4 5
3 more votes to show rating
add to favorites
×
Save as Personal and add changes to this tab that will be seen only by you. Learn more ›
×
You can save this tab as Personal to edit and correct it or add notes. All changes will be seen only by you. Learn more »
launch autoscroll
font size
0
reset
how to read this tab
guitar tuner
edit
Autoscroll
slow
fast
+/-
esc
set tempo
stop
Este es el punteo principal q hace la guitarra en algunas partes del tema:

E||------10------9------15------14--|------10------9------17------19--||
B||--12------12-----17------17------|--12------12---------------------||
G||---------------------------------|-----------------14------16------||
D||---------------------------------|---------------------------------||
A||---------------------------------|---------------------------------||
E||---------------------------------|---------------------------------||

|------10------9------15------14--|------10------9------17------19--||
|--12------12-----17------17------|--12------12---------------------||
|---------------------------------|-----------------14------16------||
|---------------------------------|---------------------------------||
|---------------------------------|---------------------------------||
|---------------------------------|---------------------------------||

Bueno esa es la intro del tema en la version
del CD "Corazón de madera".

            
            
Suggest correction
Creating personal tab
Creating personal tab
You can edit any tab online and save it as your Personal.

You can edit, replace or remove any tab part or add personal notes – all changes will be seen only by you.

Personal tabs can be accessed anytime from any device, even offline.
Learn more »
Give kudos to tab author, rate the tab!
1 2 3 4 5
comments
print report bad tab
guest
Wanna post a correction for this tab? Suggest correction