Oops, an error
Loading. Please wait.

Demasiado tab

32 views 1 this week
no commentswrite comment
1 2 3 4 5
3 more votes to show rating
add to favorites
×
Save as Personal and add changes to this tab that will be seen only by you. Learn more ›
×
You can save this tab as Personal to edit and correct it or add notes. All changes will be seen only by you. Learn more »
launch autoscroll
font size
0
reset
how to read this tab
guitar tuner
edit
Autoscroll
slow
fast
+/-
esc
set tempo
stop
INTRO

h : hammer (martillo)
b: bend (estirar la cuerda)
v: vibrato

e|-------------------------------------|
B|-------------------------------------|
G|-------------------------------------|
D|-------------------------------------|
A|-1h2h3-------------------------------|
E|-------------------------------------|

 C                F
Demasiado tarde para ver,
C                 F
demasiado rapido para caer,
C                F
demasiado listo,esto ya esta,
C                 F
demasiado aspero para probar.

G                         C
Y quiero ver las piernas mas danzantes,
G                         C
arrodilladas sobre el mingitorio

de estas calles,
F                C              G
  y mirar que lejos estamos de ver.

*: qeda sonando

e|----------------------------------------------|
B|--10b--------------10b------------10b*--------|
G|--10b---8-------8--10b-10-8-------10b*--------|
D|-----------8-10-------------10----------------|
A|----------------------------------------------|
E|----------------------------------------------|


C               F
Demasiado loco para ser verdad,
C                   F
demasiado recargado de felicidad,
C                F
demasiado fresco,si no hace calor,
C                F
demasiado amargo,creo que es mejor.

G                             C
Y mi estado es algo raro para ver,
G                                 C
las cosas locas que me pasan otra vez.
F                    C
  Y ya me canse de golpearme,
            G
la cabeza contra la pared.

e|----------------------------------------------------
B|--10b--10b------------------------------------------
G|--10b--10b--8------------8----8v-----10b------------
D|--------------10-10-8h10---10----10--10b-8----8-----
A|-------------------------------------------10---10--
E|----------------------------------------------------

e|--10-10---------------------------------------------
B|--10-10-------------------------10b-----------------
G|--------8-10--------------8-----10b-8----8-8-8------
D|-------------10------8-10---10--------10-------10v--
A|----------------8h10--------------------------------
E|----------------------------------------------------


C                 F
  Demasiado loco,estuve por ahi,
C                       F
tirado en las esquinas sin saber a donde ir.
C
Demasiado tiempo anduve,
F
como un loco a la deriva,
C                              F
y a la mitad del camino me di cuenta,
                     C
que demasiado lejos fui.

FINAL:

e|-------11----11----11---------------------------------
B|---8---8--8--8--8--8--8---10b-10b-10b-----------------
G|---8---8--8--8--8--8--8---10b-10b-10b--8--------------
D|---8---8--8--8--8--8--8------------------10-----------
A|------------------------------------------------------
E|------------------------------------------------------

----------------------------------------------------
al rasguido del FINAL lo hace con reverb y chorus (pedalera)

CUALQUIER DUDA AGREGUEN NICO.25RNR@

            
            
Suggest correction
Creating personal tab
Creating personal tab
You can edit any tab online and save it as your Personal.

You can edit, replace or remove any tab part or add personal notes – all changes will be seen only by you.

Personal tabs can be accessed anytime from any device, even offline.
Learn more »
Give kudos to tab author, rate the tab!
1 2 3 4 5
comments
print report bad tab
guest
Wanna post a correction for this tab? Suggest correction