Oops, an error
Loading. Please wait.

Noche De Locura Y Rocanrol tab

20 views 1 this week
no commentswrite comment
1 2 3 4 5
3 more votes to show rating
add to favorites
×
Save as Personal and add changes to this tab that will be seen only by you. Learn more ›
×
You can save this tab as Personal to edit and correct it or add notes. All changes will be seen only by you. Learn more »
launch autoscroll
font size
0
reset
how to read this tab
guitar tuner
edit
Autoscroll
slow
fast
+/-
esc
set tempo
stop
INTRO (RIFF 1)
e|----S---------------------7-8-----------------------------------
B|---6-7---8--8--7-------5--8-------------------------------------
G|---6-7---7--7--7-------5--7------------------------------------- X4
D|---6-7---9--9--7-------5----------------------------------------
A|------------------6-7-------------------------------------------
E|----------------------------------------------------------------

 b: bend (estirar la cuerda hacia arriba)
 h: hammer(martillo)
 s: slide(deslizar)
 v: vibrato
 b#: mantener estirado el bend ( b )

RIFF 2
e|-----10-10------10-10------10-10-----10-10-----10-10------------------
B|-- --10-10------10-10------10-10-----10-10-----10-10------------------
G|-12b--------12b--------12b-------12b-------12b------------------------
D|----------------------------------------------------------------------
A|----------------------------------------------------------------------
E|----------------------------------------------------------------------

e|--10-10----------------------------------10-------------10------------
B|---------------------------12b-----------10-------------10------------
G|----------12-10-10---------12b--10---12b----12-10---12b---------------
D|-------------------12-12----------------------------------------------
A|----------------------------------------------------------------------
E|----------------------------------------------------------------------

e|-----10-10------10-10------10-10-----------------------10-10----------
B|-- --10-10------10-10------10-10-----------------------10-10----------
G|-12b--------12b--------12b--------12-10-10----------------------------
D|---------------------------------------------11h12--------------------
A|----------------------------------------------------------------------
E|----------------------------------------------------------------------

e|-----------------10-10--10-10---------10-10---------------------------
B|-----------------10-10--10-10---------10-10---------------------------
G|----------------------------------------------------------------------
D|-11h12-----11h12---------------11h12----------------------------------
A|----------------------------------------------------------------------
E|----------------------------------------------------------------------


RIFF 1
Aprieten el boton que me quiero ir,

suelten las cadenas,dejenme salir.

A morir,A resucitar,

a las calles,me quiero escapar.

RIFF 3

e|-----10-10-----10-10-----10-10-----10-10------------------------------
B|-----10-10-----10-10-----10-10-----10-10------------------------------
G|-12b-------12b-------12b-------12b------------------------------------
D|----------------------------------------------------------------------
A|----------------------------------------------------------------------
E|----------------------------------------------------------------------

e|--13-10---------------------------------------------------------------
B|--------13-10-------------12b-----------------------------------------
G|--------------12-10----10-12b-10--------------------------------------
D|--------------------12-----------12-----------------------------------
A|----------------------------------------------------------------------
E|----------------------------------------------------------------------

RIFF 1
Pido pista desde mi vagon,

no te guita pero si ilusion.

Quiero rocanrol,denme rocanrol

quiero rocanrol,solo rocanrol.

RIFF 4

e|-----------------------------------------------------------------------
B|-----------------------------------------------------------------------
G|------7---9b-7------7---7--9b--7-7v------------------------------------
D|--7h9-----9b----7-9---9------------------------------------------------
A|-----------------------------------------------------------------------
E|-----------------------------------------------------------------------


F5           G5
Asesinando sIlencios,
A#5             C5        G5
mientras tus piernas me dejan entrar.
D5              A5
Muchas veces quiero todo,
C5      G5       D5       A5
y casi siempre pido maaas.

SOLO: (D5-A5)X2 E X2

e|--14s15-14----------14-15-15s17-15-14-12-------------------------------
B|-----------15----15----------------------14----------------------------
G|--------------14---------------------------14--------------------------
D|-----------------------------------------------------------------------
A|-----------------------------------------------------------------------
E|-----------------------------------------------------------------------

e|-14s15-14----------14-15-14-15-15s17-15-14-15s17-----------------------
B|----------15----15-----------------------------------------------------
G|-------------14--------------------------------------------------------
D|-----------------------------------------------------------------------
A|-----------------------------------------------------------------------
E|-----------------------------------------------------------------------


e|-----------------------------------------------------------------------
B|------8-----8-----8-----8-10-------8-----8-----8-----8-10--------------
G|--7s9---7s9---7s9---7s9--------7s9---7s9---7s9---7s9-------------------
D|-----------------------------------------------------------------------
A|-----------------------------------------------------------------------
E|-----------------------------------------------------------------------

A5                          E5
Quiero ver tus piernas moverse asi,
A5                          E5
y tu lengua llendo hasta el fin,
D5                  A5
esta noche quiero olvidar,
D5                 E5
esta noche quiero volar y olvidar.

A5                    E5
Noche de putas y rocanrol,
A5                    E5
noche de locura y rocanrol,
D5                   A5
noche de lujuria y alcohol,
                  D5               E5
nena quiero suicidarme en tu pecho hoy.


A5-D5 X8

e|------------------------------------------------------------------------
B|---7b-7b-7b#---7-7--------*----7b------10-10-10v--7b--------------------
G|---7b-7b-7b#---7-7-5------*----7b-5---------------7b--5-----*------5-5--
D|---------------------7--------------7-------------------7---*--5-7-----7
A|------------------------------------------------------------------------
E|------------------------------------------------------------------------

* silencio

A5                          D5
Y vas moviendo,moviendote asi,
A5                          D5
y vas,y vas,y vas hasta el fin
A               G          D
Y vas moviendo,moviendote asi
A              G        D
y vas,y vas,y vas hasta el fin

A
Y la locura q me cura,
       G         D
si no tengo la dulzura,
A
de una nena que me llega,
       G         D
a la cabeza sin parar.

A
Y no puedo,no puedo,
    G          D
por mas que yo lo intento,
A
no la puedo dejar,
        G           D
aunque ella me va a matar.

e|----5-5----5-5----5-5----5-5----5-5----5-5----5-5---5-5---------
B|----5-5----5-5----5-5----5-5----5-5----5-5----5-5---5-5---------
G|-7b-----7b-----7b-----7b-----7b-----7b-----7b-----7b------------
D|----------------------------------------------------------------
A|----------------------------------------------------------------
E|----------------------------------------------------------------

e|--8-5-----------------------------------------------------------
B|------8-5-----------------------7b-7b-7b-7b#--------------------
G|----------7-5---5-5b-----5b-----7b-7b-7b-7b#--------------------
D|--------------7------7-7----7-7---------------------------------
A|----------------------------------------------------------------
E|----------------------------------------------------------------


TERMINA EN A5

            
            
Suggest correction
Creating personal tab
Creating personal tab
You can edit any tab online and save it as your Personal.

You can edit, replace or remove any tab part or add personal notes – all changes will be seen only by you.

Personal tabs can be accessed anytime from any device, even offline.
Learn more »
Give kudos to tab author, rate the tab!
1 2 3 4 5
comments
print report bad tab
guest
Wanna post a correction for this tab? Suggest correction