Oops, an error
Loading. Please wait.

Delgadito chords

version 3
version 3

Whole song

97 views 6 this week
no commentswrite comment
1 2 3 4 5
3 more votes to show rating
add to favorites
×
Save as Personal and add changes to this tab that will be seen only by you. Learn more ›
×
You can save this tab as Personal to edit and correct it or add notes. All changes will be seen only by you. Learn more »
launch autoscroll
font size
0
reset
transpose
0
reset
display chords
guitar tuner
edit
Autoscroll
slow
fast
+/-
esc
set tempo
stop
Strumming
There is no strumming pattern for this song yet. and get +5 IQ
este es el temazo de la rabia del milenio, la guitarra se afina 1/2 tono
mas bajo, espero que os guste


G-D-Em-C-G-D-Em-C

G D   Em          C               G
 Delgadito, ellas no quieren tus besos
D         Em           C                  G
si no les das todo el amor que hay en tus huesos
 D   Em          C
Delgadito, ellas no
 G     D  Em          C
(ellas no quieren tus besos)

G D   Em          C               G
 Delgadito, ellas no quieren tus besos
D         Em           C                  G
si no les das todo el amor que hay en tus huesos
 D   Em          C
Delgadito, ellas no
 G     D  Em          C
(ellas no quieren tus besos)

G D   Em          C               G
 Delgadito, ellas no quieren tus besos
D         Em           C                  G
si no les das todo el amor que hay en tus huesos
 D   Em          C
Delgadito, ellas no
 G     D  Em          C
(ellas no quieren tus besos)

G
Se fue, no está la que mordía
D
toda su ropa cuando el quería
G
también se fue la que soplaba
D
detrás de su orejita helada
C                              G
Se fue, no está la niña que sufría
                  D
porque el no la mimaba
C
oh, no, no

G D   Em          C               G
 Delgadito, ellas no quieren tus besos
D         Em           C                  G
si no les das todo el amor que hay en tus huesos
 D   Em          C
Delgadito, ellas no
 G     D  Em          C
(ellas no quieren tus besos)

G
Se fue, no está la que dormía
D
pensando que será de mi mañana
G
también se fue la que soñaba
D
con él a un ladito en la cama
G
Se fue, no está la que le sacaba
D
de la comisaría cada madrugada
C                              G
también se fue la niña que lo mantení
       D
porque el no trabajaba
C
no, no

G D   Em          C               G
 Delgadito, ellas no quieren tus besos
D         Em           C                  G
si no les das todo el amor que hay en tus huesos
 D   Em          C
Delgadito, ellas no
 G     D  Em          C
(ellas no quieren tus besos)

G D   Em          C               G
 Delgadito, ellas no quieren tus besos
D         Em           C                  G
si no les das todo el amor que hay en tus huesos
 D   Em          C
Delgadito, ellas no
 G     D  Em          C
(ellas no quieren tus besos)
   G                 D                 G                 D
eb|-----------------|-----------------|-----------------|-----------------|
Bb|-----------------|-----------------|-----------------|-----------------|
Gb|---------2-2-----|---------2-2---0-|---------2-2-----|---------2-2---0-|
Db|-----3-3-----3-0-|---0-3-0-----0---|-----3-3-----3-0-|---0-3-0-----0---|
Ab|-----------------|-----------------|-----------------|-----------------|
Eb|-3-3-------------|-----------------|-3-3-------------|-----------------|

   G       D         Em      C         G       D         Em      C
eb|-3-------2-------|-0---------------|-----------------|-----------------|
Bb|-----------------|---------0-------|-----------------|-----------------|
Gb|-----------------|-----------------|-----------------|-----------------|
Db|-----------------|-----------------|-----------------|-----------------|
Ab|-----------------|-----------------|-----------------|-----------------|
Eb|-----------------|-----------------|-----------------|-----------------|
                                       (ellas no quieren tus besos)

   G      D          Em      C         G      D          Em      C
eb|-3------2--------|-----------------|-----------------|-----------------|
Bb|-----------------|-0-0-1-3~~~~~~~~~|-----------------|-----------------|
Gb|-----------------|-----------------|-----------------|-----------------|
Db|-----------------|-----------------|-----------------|-----------------|
Ab|-----------------|-----------------|-----------------|-----------------|
Eb|-----------------|-----------------|-----------------|-----------------|

   G      D          Em      C         G      D          Em      C
eb|-3------2--------|-----------------|-----------------|-----------------|
Bb|-----------------|-0-0-------------|-----------------|-----------------|
Gb|-----------------|-----2-0~~~~~~~~~|-----------------|-----------------|
Db|-----------------|-----------------|-----------------|-----------------|
Ab|-----------------|-----------------|-----------------|-----------------|
Eb|-----------------|-----------------|-----------------|-----------------|


    G                   D
Se fue, no está la que fuma marihuana
    G                     D
se fue, no está la que mordía la banana
    G                    D
se fue, no está la que tenia pelo pana
G
ella también se fue
C
oh

G D   Em          C               G
 Delgadito, ellas no quieren tus besos
D         Em           C                  G
si no les das todo el amor que hay en tus huesos
 D   Em          C
Delgadito, ellas no
 G     D  Em          C
(ellas no quieren tus besos)

G D   Em          C               G
 Delgadito, ellas no quieren tus besos
D         Em           C                  G
si no les das todo el amor que hay en tus huesos
 D   Em          C
Delgadito, ellas no
 G     D  Em          C
(ellas no quieren tus besos)

G-D-Em-C-G-D-Em-C
delgadito oooooh
 D   Em          C
Delgadito, ellas no
 G     D  Em          C
(ellas no quieren tus besos)

G-D-Em-C-G-D-Em-C
delgadito oooooh
 D   Em          C
Delgadito, ellas no
 G     D  Em          C
(ellas no quieren tus besos)

G

            
            
Suggest correction
Creating personal tab
Creating personal tab
You can edit any tab online and save it as your Personal.

You can edit, replace or remove any tab part or add personal notes – all changes will be seen only by you.

Personal tabs can be accessed anytime from any device, even offline.
Learn more »
Give kudos to tab author, rate the tab!
1 2 3 4 5
comments
print report bad tab
guest
Wanna post a correction for this tab? Suggest correction