Oops, an error
Loading. Please wait.

Dioses De Terciopelo tab

version 1
version 1

Whole song

152 views 1 this week
no commentswrite comment
1 2 3 4 5
3 more votes to show rating
add to favorites
×
Save as Personal and add changes to this tab that will be seen only by you. Learn more ›
×
You can save this tab as Personal to edit and correct it or add notes. All changes will be seen only by you. Learn more »
launch autoscroll
font size
0
reset
how to read this tab
guitar tuner
edit
Autoscroll
slow
fast
+/-
esc
set tempo
stop
dioses de terciopelo

Intro:riff


Riff:

e|----------------------------------------------------------------|
b|---------10------13-10-9-8--------------10------13-10-9-10------|
g|--9-10-7----10-7-----------10----9-10-7----10-7-----------------|
d|----------------------------------------------------------------|
a|----------------------------------------------------------------|
E|----------------------------------------------------------------|


e|----------------------------------------------------------------|
b|---------10------13-10-9-8--------------------10----------------|
g|--9-10-7----10-7-----------10--10-10----9-10-7--10-7-8b-9-7b----|
d|----------------------------------------------------------------|
a|----------------------------------------------------------------|
E|----------------------------------------------------------------|


G5                      D5
Cuando el cielo cuelgue a tu alrededor
G5                        D5
y la tierra se abra otra vez
G5                 D5
cuando haya huído ya el último tren,
A#     A
conmigo te llevaré.

Riff

G5                      D5
Cuando el agua bese el temblor de tus pies,
G5                             D5
y la muerte baile a nuestro alrededor.
G5               D5                A#5   A5
cuando todo sea olvido otra vez, yo te recordaré.

D5
Sólo el amor sostiene el deseo,
G5
desde el torbellino a tu corazón;
D5
nada lo detiene, destilando fuego,
G5
en tus ojos llameantes yo veo el sol.

D5
Sólo el amor sacrifica tu anhelo,
G5
todo el caramelo cristalizó.
D5
Sueño de dioses de terciopelo,
A5
pidiendo que sólo, sólo...
salves tu amor.

Riff


Riff 1:

    G5  A#5 A5
e|----------------------------------------|
b|----------------------------------------|
g|----------------------------------------|
d|--5-5-8-8-7---8-7-5---5-5-8-8-7---8-7---|
a|--5-5-8-8-7---8-7-5---5-5-8-8-7---8-7---|
E|--3-3-6-6-5---6-5-3---3-3-6-6-5---6-5---|


Solo:
Riff 1
D5 G5 D5 A5
Riff 1


D5
Sólo el amor sostiene el deseo,
G5
Desde el torbellino a tu corazón;
D5
nada lo detiene, destilando fuego,
G5
en tus ojos llameantes yo veo el sol.

D5
Sólo el amor sacrifica tu anhelo,
G5
todo el caramelo cristalizó.
D5
Sueño de dioses de terciopelo,
A5
pidiendo que sólo, sólo...
salves tu amor.

Riff 2:


e|-------------------------------------------------------|
b|-------------------------------------------------------|
g|--7--7--10-10-12---13-12-10---7--7--10-10-12---13-12---|
d|--7--7--10-10-12---13-12-10---7--7--10-10-12---13-12---|
a|--5--5--8--8--10---11-10-8----5--5--8--8--10---11-10---|
E|-------------------------------------------------------|


G5                            D5
Cuando seamos alimento de la estrella por venir,
G5                           D5
que en la vasta soledad se haya tenido que perder.
G5                      D5
Cuando ya desista el lugar en donde estés,
A#5              A5
¡yo te encontraré!


Riff

Termina en D5

            
            
Suggest correction
Creating personal tab
Creating personal tab
You can edit any tab online and save it as your Personal.

You can edit, replace or remove any tab part or add personal notes – all changes will be seen only by you.

Personal tabs can be accessed anytime from any device, even offline.
Learn more »
Give kudos to tab author, rate the tab!
1 2 3 4 5
comments
print report bad tab
guest
Wanna post a correction for this tab? Suggest correction