Oops, an error
Loading. Please wait.

El Juicio Del Ganzo tab

version 2
version 2

Whole song

67 views 1 this week
no commentswrite comment
1 2 3 4 5
3 more votes to show rating
add to favorites
×
Save as Personal and add changes to this tab that will be seen only by you. Learn more ›
×
You can save this tab as Personal to edit and correct it or add notes. All changes will be seen only by you. Learn more »
launch autoscroll
font size
0
reset
how to read this tab
guitar tuner
edit
Autoscroll
slow
fast
+/-
esc
set tempo
stop
hola.. !
bueno esta es mi 2da transcripcion... esta sacado de bailando en una pata
y bueno masomenos es asi... lo subo pq el otro solo q taba en la pag estaba
medio incompleto


E||-------------------|----------------------|------------------------|
B||-------------------|----------------------|------------------------|
G||-----------12h-14--|--14b---------14r-12--|--14--14b-------14r-12--|
D||-------------------|----------------------|------------------------|
A||-------------------|----------------------|------------------------|
E||-------------------|----------------------|------------------------|


------------------------|-----------8h-10--|--10b----10--8--7--10--10p8p7-|
------------------------|------------------|------------------------------|
--14p-12--11--9~-7------|------------------|------------------------------|
------------------------|------------------|------------------------------|
------------------------|------------------|------------------------------|
------------------------|------------------|------------------------------|


--8----7h-8--10p8p7-----------|------------------|---------------15--17--|
--------------------10p8p7----|------------------|-----------------------|
---------------------------9--|--7~----7~--7~----|--7~---7~--------------|
------------------------------|------------------|-----------------------|
------------------------------|------------------|-----------------------|
------------------------------|------------------|-----------------------|


--17b-----------17r-15--|--17--17b---------15--14--|
------------------------|--------------------------|
------------------------|--------------------------|
------------------------|--------------------------|
------------------------|--------------------------|
------------------------|--------------------------|


--17-15-14------------14h-15--17-|
------------17--15---------------|
---------------------------------|
---------------------------------|
---------------------------------|
---------------------------------|


--15-14-17-15-14-17-15-14-17-15-14-17-15-14-17-15-|
--------------------------------------------------|
--------------------------------------------------|
--------------------------------------------------|
--------------------------------------------------|
--------------------------------------------------|


--14-17-15-14-17-15-14-17-15-14-17-15-14-17-15-14-|--15--------7/-8--|
--------------------------------------------------|------------------|
--------------------------------------------------|------------------|
--------------------------------------------------|------------------|
--------------------------------------------------|------------------|
--------------------------------------------------|------------------|


esta parte es medio fruta.. pero tira algo por ahi
--10p8p7--------------------------|-------------|--------------------|
---------10p8p7h10p8p7------------|-------------|--7---7/-8---8------|
-----------------------9p7---7-9--|--7--9----7--|--------------------|
---------------------------9------|-------------|--------------------|
----------------------------------|-------------|--------------------|
----------------------------------|-------------|--------------------|


--------------------------|---------------------|-------------------|
--------10--10----12--12--|--10--------8--------|--7----------------|
--------------------------|---------------------|---------7h---9----|
--------------------------|---------------------|-------------------|
--------------------------|---------------------|-------------------|
--------------------------|---------------------|-------------------|


--7--------||
--8--------||         desp el SOL lo engancha con la repeticion de
--7--------||         intro... q es la base del solo de saxo
-----------||
-----------||
-----------||


h = ligado ascendente
b = estirar
p = ligado descendete
~ = vibrato
r = estirar y volver

FIN

temaso.... !... el mejor de la renga.. .:D

dieh..

            
            
Suggest correction
Creating personal tab
Creating personal tab
You can edit any tab online and save it as your Personal.

You can edit, replace or remove any tab part or add personal notes – all changes will be seen only by you.

Personal tabs can be accessed anytime from any device, even offline.
Learn more »
Give kudos to tab author, rate the tab!
1 2 3 4 5
comments
print report bad tab
guest
Wanna post a correction for this tab? Suggest correction