Oops, an error
Loading. Please wait.

Entre La Niebla tab

84 views 1 this week
no commentswrite comment
1 2 3 4 5
3 more votes to show rating
add to favorites
×
Save as Personal and add changes to this tab that will be seen only by you. Learn more ›
×
You can save this tab as Personal to edit and correct it or add notes. All changes will be seen only by you. Learn more »
launch autoscroll
font size
0
reset
how to read this tab
guitar tuner
edit
Autoscroll
slow
fast
+/-
esc
set tempo
stop
HOLA.. ESTE ES UNO DE LOS TEMAS DEL DISCO TRUENO-TIERRA DE LA RENGA..
EL PUNTEO SE ME ESTA COMPLICANDO.. PERO YA VA A ESTAR..
POR AHORA TIENEN TODOS LOS RIFF Y ARREGLOS PARA TOCARLO-.
SUERTE
DUDAS O COMENTARIOS SERAN BIEN RECIBIDOS POR MAIL.

  D   -    F
E-2--x-x--1-1-x-  este rasgueo lo hace durante
B-3--x-x--1-1-x-  los dos primeros versos
G-2--x-x--2-2-x-
D-0--x-x--3-3-x-
A----x-x--3-3-x-
E----x-x--1-1-x-

Con el sol a cuestas
un ojo en mi mano
del cielo cae la incandescente piel
que el viento escupe a mi alrededor

parpadean mis dedos
girasol de luz
estiro y tiro entre la niebla
hasta encontrar tu voz

G                                F - F# - G
alguien metio mano en el infierno
y sembro el espanto entre los dos
A#             C
devoro la noche
                      A
cubrio el cielo de dolor

PUENTE 1
e-----------
b-----------
g--7/-5/-2--
d--7/-5/-2--
a--5/-3/-0--
e-----------

BASE DE VERSOS EN 5TA
E--------------
B--------------
G--7-x-x-10-10-
D--7-x-x-10-10-
A--5-x-x-8--8--
E--------------

como una estampida
exploto el horror
y yo solo quiero la misma mañana
donde despertaba ayer

rodeado de excusas
de contemplacion
dos moleculas de oxigeno
bastan para mi revolucion

quien diria algo?
si hoy salgo a matar
al tantas veces muerto sueño
que hoy despierta en esta realidad

y hoy que mis ojos casi muertos
hacen que te vea si
te imagino tras del cielo
floreces en mi jardin

G                               F - F# - G
alguien metio mano en el infierno
y sembro el espanto entre los dos
A#             C
devoro la noche
                       A     -PUENTE 1-
cubrio el cielo de dolor

BASE PUNTEO 1 - durante el punteo esta es la base de bajo,
 y la guitarra base hace lo mismo en 5tas..
el punteo cuando lo tenga lo mando, je

E-------------------------------------------------------------
B-------------------------------------------------------------
G-------------------------------------------------------------
D-------------------------------------------------------------
A--5-5--3-5-3-5-3-5-5--3-5-3-5-3------------------------------
E--------------------------------5-5--3-5-3-5-3-5-5--3-5-3-5-3

Al finalizar punteo
-PUENTE 2-
E---------------------------
B---------------------------
G--10-9-7-5-7----10-9-7-5----
D--10-9-7-5-7----10-9-7-5-5--
A--8--7-5-3-5----8--7-5-3-5--
E-------------------------3--

G                               F - F# - G
alguien metio mano en el infierno
y sembro el espanto entre los dos
A#             C
devoro la noche
                       A
cubrio el cielo de dolor

-PUENTE 1-

-PUNTEO DOS- tira escalas sobre esto ( desp las subo )
E-------------------------------------------------------------
B-------------------------------------------------------------
G-------------------------------------------------------------
D--7-7--5-7-5-7-5-7-7--5-7-5-7-5------------------------------
A--5-5--3-5-3-5-3-5-5--3-5-3-5-3-7-7--5-7-5-7-5-7-7--5-7-5-7-5
E--------------------------------5-5--3-5-3-5-3-5-5--3-5-3-5-3

G                               F - F# - G
alguien metio mano en el infierno
solto los perros del averno
y su desvastacion
A#                      C      A# - C
rabia madre de las pestes
                    A
consumiste la ilusion

-OUTRO X 4 -
E--------------
B--------------
G--7-x-x-10-10-
D--7-x-x-10-10-
A--5-x-x-8--8--
E--------------

            
            
Suggest correction
Creating personal tab
Creating personal tab
You can edit any tab online and save it as your Personal.

You can edit, replace or remove any tab part or add personal notes – all changes will be seen only by you.

Personal tabs can be accessed anytime from any device, even offline.
Learn more »
Give kudos to tab author, rate the tab!
1 2 3 4 5
comments
print report bad tab
guest
Wanna post a correction for this tab? Suggest correction