Oops, an error
Loading. Please wait.

Mujer De Caleidoscopio tab

85 views 1 this week
no commentswrite comment
1 2 3 4 5
3 more votes to show rating
add to favorites
×
Save as Personal and add changes to this tab that will be seen only by you. Learn more ›
×
You can save this tab as Personal to edit and correct it or add notes. All changes will be seen only by you. Learn more »
launch autoscroll
font size
0
reset
how to read this tab
guitar tuner
edit
Autoscroll
slow
fast
+/-
esc
set tempo
stop
bueno aca les dejo este solo buenisimo, dentro de poco
si dios quiere les dejo el otro solo, este  lo saque a oido,
asi que puede que tenga errores,

^^: esto quiere decir vibratto e inclusive
levantar un poco la cuerda.
*:armonico de pulgar
(x): nota que no suena mucho

|-----------------------------------------------------------
|-7-8-7~~-7/--7-8-7h8p7-------------------------------------
|-----------------------9p7--9^^-9^---9-7h9p7-6-7--6h7p6----
|--------------------------------------------------------5--
|-----------------------------------------------------------
|-----------------------------------------------------------

---------------------7-9-7------------------------------
----------------------------10^^--10^*--10-10br*-8-7-8--
-----------------7~~------------------------------------
-----------------7~~------------------------------------
-9-10p9--10-9/------------------------------------------
--------------------------------------------------------


--------------------------------------------------------
-7h8p7--------------------------------------------------
-------9------/7----------------------------------------
--------------(7)--9p(7)h9^--7h9p7---------------7-9^---
-----------------------------------9-8-7-5---5-7--------
--------------------------------------------------------

----------------------------------------------------------------
12-14-15~~--14-12-14---14-15-17~~-15-14h15p14-12-10-8-7-8-10-8--
----------------------------------------------------------------
----------------------------------------------------------------
----------------------------------------------------------------
----------------------------------------------------------------

--------------------------------------
---8-7h8p7---7-8^--7h8p7---7---7------
-----------9-------------9-----9b^----
--------------------------------------
--------------------------------------
--------------------------------------

---------------------------------------14-13-12h13p12-10--
12-15-14-12h14p12-10-8--7-8--7h8p7------------------------
-----------------------------------9----------------------
----------------------------------------------------------
----------------------------------------------------------
----------------------------------------------------------

-9--9h10p9-9--7-9-9--7-9-7-------------------------------------
----------------------------10b^---10br-8/7--------------------
---------------------------------------------9bb----9brp7------
-----------------------------------------------------------9^--
---------------------------------------------------------------
---------------------------------------------------------------

----------------------------------------
----------------------------------------
-------9b-9b-9b-9b---9^^----------------
----------------------------------------
----------------------------------------
----------------------------------------

dentro de poco si dios quiere les dejo el otro solo,
este  lo saque a oido, y puede que tenga errores,
asi que contactenme a genaronm_09@ si es que tienen
dudas o me quieran pasar una correccion.

            
            
Suggest correction
Creating personal tab
Creating personal tab
You can edit any tab online and save it as your Personal.

You can edit, replace or remove any tab part or add personal notes – all changes will be seen only by you.

Personal tabs can be accessed anytime from any device, even offline.
Learn more »
Give kudos to tab author, rate the tab!
1 2 3 4 5
comments
print report bad tab
guest
Wanna post a correction for this tab? Suggest correction