Oops, an error
Loading. Please wait.

Ansiedad tab

115 views 1 this week
no commentswrite comment
1 2 3 4 5
3 more votes to show rating
add to favorites
×
Save as Personal and add changes to this tab that will be seen only by you. Learn more ›
×
You can save this tab as Personal to edit and correct it or add notes. All changes will be seen only by you. Learn more »
launch autoscroll
font size
0
reset
how to read this tab
guitar tuner
edit
Autoscroll
slow
fast
+/-
esc
set tempo
stop
A
Ansiedad

de tenerte en mis brazos
                       Bm
musitando palabras de amor
      E
ansiedad

de sentir tus encantos
         Bm     Dm        A
y en la boca volverte a besar.

 A
Ansiedad

de tenerte en mis brazos
                       Bm
musitando palabras de amor
      E
ansiedad

de sentir tus encantos
         Bm     Dm        A
y en la boca volverte a besar.

               C#7
Y a veces que llorando
          F#m
mis pensamientos
                  C#7
mis lágrimas son perlas
             F#m
que caen al mar.

                D
Y el eco adormecido
           A
de este lamento
                  Bm
hace que estes presente
E        A
en mi soñar.

                 C#7
Tal vez estes llorando
         F#m
al recordarme
                  C#7
y estreches mi retrato
         F#m
con frenesi.

                  D
Y hasta tu oido llegue
               A
la melodía salvaje
                Bm
y el eco de la pena
E             A
de estar sin ti.

                 C#7
Tal vez este llorando
         F#m
al recordarme
                  C#7
y estreches mi retrato
         F#m
con frenesi.

                  D
Y hasta tu oido llegue
               A
la melodía salvaje
                 Bm
y el eco de la pena
E             A
de estar sin ti.


REQUINTO:

e/-7-7-7-7-7-7--I--6-6-4-4-2-2-0-4-2/4-/
B/-9-9-9-9-9-9--I--7-7-5-5-4-4-2-5-4---/
G/-------------------------------------/
D/-------------------------------------/
A/-------------------------------------/
E/-------------------------------------/


e/-4-4-4-4-4-4-----3-3-6-6-3-3-------/
B/-4-4-4-4-4-4-----4-4-4-4-4-4-4-2-0-/
G/-----------------------------4-3-1-/
D/-----------------------------------/
A/-----------------------------------/
E/-----------------------------------/


e/-----3-----3-----3--/-----1-----1-----1-/
B/--------------------/-------------------/
G/-2-3---3-3---3-3----/-2-3---3-3---3-3---/
D/--------------------/-------------------/
A/--------------------/-------------------/
E/--------------------/-------------------/


e/--------------------------------/
B/-----3-----3--------------------/
G/-----------------5-----5---5--3-/
D/-2-3---3-3---3-3---3-3---3------/
A/--------------------------------/
E/--------------------------------/

            
            
Suggest correction
Creating personal tab
Creating personal tab
You can edit any tab online and save it as your Personal.

You can edit, replace or remove any tab part or add personal notes – all changes will be seen only by you.

Personal tabs can be accessed anytime from any device, even offline.
Learn more »
Give kudos to tab author, rate the tab!
1 2 3 4 5
comments
print report bad tab
guest
Wanna post a correction for this tab? Suggest correction