Oops, an error
Loading. Please wait.

El Faro De Luz tab

55 views 1 this week
no commentswrite comment
1 2 3 4 5
3 more votes to show rating
add to favorites
×
Save as Personal and add changes to this tab that will be seen only by you. Learn more ›
×
You can save this tab as Personal to edit and correct it or add notes. All changes will be seen only by you. Learn more »
launch autoscroll
font size
0
reset
how to read this tab
guitar tuner
edit
Autoscroll
slow
fast
+/-
esc
set tempo
stop
ACORDES:> Dm G C Am E A7

Saludos a Andrea, andresandra, sandrea a Guillermo, Omar cirne
*para que se emocionen un rato? y ala moisés Sáenz de Cholula, pue.

Esta es mi tercera transcripción que la verdad vale la pena
Por que esta 100% correcta se los aseguro y si no chequenla:


INTRO:Dm G C Am Dm F E Am


E-----------------------------------------------
B-10-12-13-13-,-10-12-13-13-12-10-13-12-(10-12)-
G-----------------------------------------------

E-----------------------------------------------
B-8-10-12-12,-8-10-12-12-10-8-12-10-8-10-(8-10)-
G-----------------------------------------------

E-----------------------------------------------
B-10-12-13-13--10-12-13-13--13-15-13-12---------
G-----------------------------------------------

E-7-8-7-----------------------------------------
B-------10-9-10-(10-12-13)----------------------
G-----------------------------------------------

CANCION:

         Dm
A DONDE VAS
            G
QUE NO ME LLEVES CONTIGO
           C
MARCADO ESTA
          Am
QUE SIGA YO EN TU  CAMINO
         Dm
A DONDE VAS
             E
SI NO HAY LUGAR EN LA TIERRA
           Am/E
DONDE OCULTAR
            Am                   A7
TODO ESTE AMOR QUE NOS QUEMA

            Dm
EL FARO DE LUZ
            G
DE LA LIBERTAD
               C                    Am
SE APAGO EN MOMENTO, EN QUE TE CONOCI
             Dm              E
ELEJI SER ESCLAVO DE TU CORAZON
               Am   E              Am     A7
TU TAMBIEN ELEJISTE LA MIEL DE MI AMOR
             Dm              G
LA VIDA NOS PUSO EN AQUEL LUGAR
               C                   Am
DEL QUE NUNCA JAMAS HABREMOS DE ESCAPAR
            Dm                        E
AMAR ES LA LEY QUE SIEMPRE SE HA DE APAGAR
            Am/E           Am
AL FARO DE LUZ DE LA LIBERTAD

Segundo requinto del poema:

INTRO: Dm G C Am Dm F E Am


E-----------------------------------------------
B-10-12-13-13-,-10-12-13-13-12-10-13-12-(10-12)-
G-----------------------------------------------

E-----------------------------------------------
B-8-10-12-12,-8-10-12-12-10-8-12-10-----(8-10)--
G-----------------------------------------------

E-----------------------------------------------
B-10-12-13-13--10-12-13-13--13-15-13-12---------
G-----------------------------------------------

E-7-8-7-----------------------------------------
B-------10-9-10--(10-9-8)-*es lo único que varia?
G-----------------------------------------------

POEMA:

*SERE TU PASO

SERE TU SUSPIRAR

LA HUELLA QUE DEJES POR TU SENDA

SI QUIERES.. SERE TU PENUMBRA

PERO SIEMPRE SERAS MI AURORA

QUE EN CADA INSTANTE ILUMINARA

TODO MI SER...


            Dm
EL FARO DE LUZ
            G
DE LA LIBERTAD
               C                    Am
SE APAGO EN MOMENTO, EN QUE TE CONOCI
             Dm              E
ELEJI SER ESCLAVO DE TU CORAZON
               Am   E              Am     A7
TU TAMBIEN ELEJISTE LA MIEL DE MI AMOR
             Dm              G
LA VIDA NOS PUSO EN AQUEL LUGAR
                 C                 Am
DEL QUE NUNCA JAMAS HABREMOS DE ESCAPAR
            Dm                        E
AMAR ES LA LEY QUE SIEMPRE SE HA DE APAGAR
            Am/E           Am
AL FARO DE LUZ DE LA LIBERTAD


saludos........


///******************************///
///*********JAIME COCONI*********///
///******************************///

            
            
Suggest correction
Creating personal tab
Creating personal tab
You can edit any tab online and save it as your Personal.

You can edit, replace or remove any tab part or add personal notes – all changes will be seen only by you.

Personal tabs can be accessed anytime from any device, even offline.
Learn more »
Give kudos to tab author, rate the tab!
1 2 3 4 5
comments
print report bad tab
guest
Wanna post a correction for this tab? Suggest correction