Oops, an error
Loading. Please wait.

El Mundo tab

17 views 1 this week
no commentswrite comment
1 2 3 4 5
3 more votes to show rating
add to favorites
×
Save as Personal and add changes to this tab that will be seen only by you. Learn more ›
×
You can save this tab as Personal to edit and correct it or add notes. All changes will be seen only by you. Learn more »
launch autoscroll
font size
0
reset
how to read this tab
guitar tuner
edit
Autoscroll
slow
fast
+/-
esc
set tempo
stop
***EL MUNDO***


/*Y DE NUEVO LES TRAIGO OTRA CANCION MUY ESPECIAL Y MUY BONITA, DE
LA RONDALLA DE SALTILLO Q ES UNA DE LAS MEJORES Y D LAS MAS ROMANTICAS
OJALA Y LES GUSTE:


A ESTA CANCION TIENEN Q PONERLE AFUERZA EL CAPO EN EL SEGUNDO TRASTE SI
NO, NO SE VA A OIR COMO LA ORIGINAL Y SI NO LO TIENEN SUBANLE 2 TONOS:


CAPOTRASTE EN EL 2DO TRASTE:


INTRO:

               E 
E-----------------------------------------------
B---------3-5-5/7---5-5----4-4/5----------------
G--2-4-6----------------------------------------

  A7          D
E----------------7-5-5--4-4/5----4-5------------
B-5/7--5-5--4-5---------------------------------
G-----------------------------------------------


                     Em   A7
Por lejos que te vayas
                       D    Em  F#m
un día te alcanzaré
       Fm                     Em      A7
por mucho que te escondas
                         D
al fin te encontraré

E--3--2--3--2--0---------2--0--2--0----0-2-1-0-(REQUINTEADO)
B------------------3--2---------------3-------3LARGO


                          Em    A7
el mundo siendo mundo
                      D   Em   F#m
no me podrá vencer
        Fm              Em       A7
si cabe en cinco letras
                           D
muy grande no ha de ser


                        Am      D7
te buscaré en las sombras

B---3h5----5/6--7----------
                      G
te buscaré en los mares
                          E7
B-----8-7---7-5-----------

y en las notas perdidas
                         A7
de los viejos cantares

                     Em    A7
por lejos que te vayas
                         D   Em   F#m
un día te alcanzaré
     Fm                         Em   A7
el mundo no es muy grande
                           D
y al fin te encontraré


2DO REQUINTO:

               E 
E-----------------------------------------------
B---------3-5-5/7---5-5----4-4/5----------------
G--2-4-6----------------------------------------

  A7          D
E----------------7-5-5--4-4/5----4-5------------
B-5/7--5-5--4-5---------------------------------
G-----------------------------------------------

            D
E-----------------------------------------------
B-5-3-2---5-3--5-5/7---8-8/10-------------------
G-----------------------------------------------


EL 2DO REQUINTO VA ACOMPAÑADO DE ESTE TREMOLO:

E--3--2--3--2--0---------2--0--2--0---0-2-1-0-(REQUINTEADO)
B------------------3--2---------------3-------3LARGO


ESTE SEGUNDO REQUINTO VA ACOMPAÑADO DE ESTE HERMOSO POEMA:


                      ***POEMA***

E 
?aunque te escondas
                         A7
en la penumbra del olvido,
                         D
aunque quisieras envolverte

en tu decidido adiós

aunque quieras partir

                  E 
para siempre de mi vida

siempre encontraré

el perfume de tu amor
                 D...
y el edén de tus labios?


                         Am      D7
te buscaré en las sombras
                      G
te buscaré en los mares
                          E7
y en las notas perdidas
                         A7
de los viejos cantares

                     Em    A7
por lejos que te vayas
                         D   Em   F#m
un día te alcanzaré
     Fm                         Em   A7
el mundo no es muy grande
                           D   F#m   Fm  Em
y al fin te encontraré
       A7               D
y al fin te encontraré


SALUDOS...A:


ANDREA, SANDY, ALINKA, ALEJANDRA, GUILLERMO Y A TODOS...


DUDAS O SUGERENCIAS A MIS CORREOS:


JAIME_GUITARRISTA@

JAIME_COCONI@


                    ***JAIME COCONI***

            
            
Suggest correction
Creating personal tab
Creating personal tab
You can edit any tab online and save it as your Personal.

You can edit, replace or remove any tab part or add personal notes – all changes will be seen only by you.

Personal tabs can be accessed anytime from any device, even offline.
Learn more »
Give kudos to tab author, rate the tab!
1 2 3 4 5
comments
print report bad tab
guest
Wanna post a correction for this tab? Suggest correction