Oops, an error
Loading. Please wait.

Eres Tu tab

41 views 1 this week
no commentswrite comment
1 2 3 4 5
3 more votes to show rating
add to favorites
×
Save as Personal and add changes to this tab that will be seen only by you. Learn more ›
×
You can save this tab as Personal to edit and correct it or add notes. All changes will be seen only by you. Learn more »
launch autoscroll
font size
0
reset
how to read this tab
guitar tuner
edit
Autoscroll
slow
fast
+/-
esc
set tempo
stop
**SON SOLO TRES ADORNOS TOCADOS A DOS CUERDAS EN ESTA CANCIÓN,SON MUY PARECIDOS, 
DE HECHO, EL INTRO Y EL TAB DE EN MEDIO SON LOS MISMOS...

ESTE ES EL INTRO Y TAMBIÉN ES LA PARTE KE SE TOKA EN MEDIO DE LA CANCIÓN:


6|----------------------------------------------------------------------------------------------->
5|----------------------------------------------------------------------------------------------->
4|--------------------------------------------4-------------------------------------------------->
3|-----------------------5--5---3--3---1--1---3-----------------------------------5--3--5-------->
2|--6--6---4--4---2--2---4--4---2--2---1--1-----------7--7---6--6---4--4---2--2---4--2--4---2---->
1|--4--4---2--2---1--1--------------------------------6--6---4--4---2--2---1--1-------------1---->

(((SOLO APRÉNDANSE EL DE ARRIBA PORKE REALMENTE SE REPITE )))
(((SOLO KE LO PUSE DOS VECES PORKE PUES, SE TOCA DOS VECES EN EL INTRO Y EN LA PARTE DE EN MEDIO))

6|-----------------------------------------------------------------------------------------------|
5|-----------------------------------------------------------------------------------------------|
4|--------------------------------------------4--------------------------------------------------|
3|-----------------------5--5---3--3---1--1---3-----------------------------------5--3--5--------|
2|--6--6---4--4---2--2---4--4---2--2---1--1-----------7--7---6--6---4--4---2--2---4--2--4---2----|
1|--4--4---2--2---1--1--------------------------------6--6---4--4---2--2---1--1-------------1----|


..........................................................

ESTE ES EL OTRO TAB, ES EL DEL FINAL DE LA CANCIÓN:


6|-------------------------------------------------|
5|-------------------------------------------------|
4|-------------------------------------3--4--------|
3|-----------------------5--5---3--3---1--3--1-----|
2|--6--6---4--4---2--2---4--4---2--2---------1-----|
1|--4--4---2--2---1--1-----------------------------|

.............................................................

            
            
Suggest correction
Creating personal tab
Creating personal tab
You can edit any tab online and save it as your Personal.

You can edit, replace or remove any tab part or add personal notes – all changes will be seen only by you.

Personal tabs can be accessed anytime from any device, even offline.
Learn more »
Give kudos to tab author, rate the tab!
1 2 3 4 5
comments
print report bad tab
guest
Wanna post a correction for this tab? Suggest correction