Oops, an error
Loading. Please wait.

Me Muero Por Estar Contigo tab

61 views 1 this week
no commentswrite comment
1 2 3 4 5
3 more votes to show rating
add to favorites
×
Save as Personal and add changes to this tab that will be seen only by you. Learn more ›
×
You can save this tab as Personal to edit and correct it or add notes. All changes will be seen only by you. Learn more »
launch autoscroll
font size
0
reset
how to read this tab
guitar tuner
edit
Autoscroll
slow
fast
+/-
esc
set tempo
stop
Espero les agrade esta canción, traté de obtener todo cuanto pude, así
que espero les sea de utilidad.

Hay un acorde que desconozco, por lo que le llamé ACX (ACorde X):


ACX

|----|-----|-----|-----|-----|-----|:6
|----|-----|-----|-----|-----|-----|:5
|----|-----|--O--|-----|-----|-----|:4
|----|--O--|-----|-----|-----|-----|:3
|----|-----|--O--|-----|-----|-----|:2
|----|--O--|-----|-----|-----|-----|:1

.......................................................................

Vamos con la canción:

::[INTRO] & Acompañamiento::

// La guitarra de 6 cuerdas indica la guitarra principal (1er Guitarra)
// La guitarra de 3 cuerdas indica la guitarra de fondo  (2da Guitarra)
// Ambas se tocan simultáneamente respetándose los tiempos

                     ACX      RE7                  SIm
6|---------------------------------------------------------
5|---------------------------------------------------------
4|---------------------------------------------------------
3|---------------------------------------------------------
2|---------------------------------------------------------
1|---3--3--3--3--3----5----3---3----2--2--2----------------

3|---------------------------------------------------------
2|----------------------------------------12---10---8------
1|----------------------------------------10----8---7------


                               MIm                 LA
6|---------------------------------------------------------
5|---------------------------------------------------------
4|---------------------------------------------------------
3|-------------------------------------4---5---4---2-------
2|-------------------------------------3---5---3---2-------
1|----1--1--1--1--1--1/3---1----0--------------------------

3|---------------------------------------------------------
2|----------------8------------10------8--10---8---7-------
1|----------------7-------------8------7---7---7---5-------


          LA7        REm                  SOL7
6|---------------------------------------------------------
5|---------------------------------------------------------
4|---------------------------------------------------------
3|---------------------------------------------------------
2|---2--2--2---3---2--2------3--2--3-----------------------
1|---0--0--0---1---0--0------1--0--1-----------------------

3|---------------------------7--6--7-----------------------
2|---------------------------6--5--6-----------------------
1|---------5---5---3--3------------------------------------


                              DO
6|---------------------------------------------------------|
5|---------------------------------------------------------|
4|---------------------------------------------------------|
3|---------------------------------------------------------|
2|-------3--3--3--3--3--5--3--1------3--5---7--5--3--1-----|
1|-------1--1--1--1--1--3--1--0------1--3---5--3--1--0-----|

3|-------7--7--7--7--7--9--7--5------7--9--10--9--7--5-----|
2|-------6--6--6--6--6--8--6--5------6--8--10--8--6--5-----|
1|---------------------------------------------------------|

.........................................................................

::[ADORNOS SECUNDARIOS]::

 Se llaman RIFFs (abreviados RX donde X es un número para identificarlos)
 y se tocan según se indique en la tablatura:

[R1]

6|------------------|
5|------------------|
4|------------------|
3|------------------|
2|---6--8--9--------|
1|------------6-----|

[R2]
6|------------------|
5|------------------|
4|------------------|
3|------------------|
2|---6--8--6--4-----|
1|------------------|

[R3]
6|------------------|
5|------------------|
4|------------------|
3|-------5--4-------|
2|---3--------------|
1|------------------|

[R4]
6|------------------|
5|------------------|
4|------------------|
3|--5---------------|
2|------3--4--------|
1|------------------|

[R5]
6|---------------------------|
5|---------------------------|
4|---------------------------|
3|---------------------------|
2|--5--6--8-----8--6--5------|
1|-----------5---------------|

[R6]
6|------------------|
5|------------------|
4|------------------|
3|------------------|
2|---8--6--8--6--4--|
1|------------------|

[R7]
6|------------------|
5|------------------|
4|------------------|
3|------------------|
2|--6--4--3---------|
1|------------------|

[R8]
6|------------------|
5|------------------|
4|------------------|
3|--5---------------|
2|-----3--4--6------|
1|------------------|
_____________________________________________________________________

Ahora sí! Vamos a la canción...


[INTRO] + Acompañamiento
//En la parte del poema se toca exactamente los mismo que aquí.

                                 LA#      SOLm
¿Por qué no quieres creer que te amo?  [R1]
                     DOm       FAm
Mi vida ya no tiene amor.   [R2]
                       LA#7      SOL7
Yo sólamente quiero el tuyo. [R3]
                     DOm
Yo solo quiero tu querer.  [R4]


                       LA#    SOLm
Si no me quieres me lastimas,
                       DOm    FAm
Si tienes otro amor también.
                      LA#7    SOL7
Yo seguiré siendo tu amigo
                       DOm    FAm
aunque me duela comprender.
                      DOm
Yo seguiré siendo tu amigo
   SOL7             DO
aunque me duela comprender. [R5]


               ACX    RE7     SIm
Me muero por estar contigo.
                        MIm   LA
Me muero por volverte a ver.
             LA7      REm     SOL7
Me muero por besar tu boca,
                      DO
tu boca que tanto anhelé.  [R5]


                ACX    RE7    SIm
Me muero porque tú  me creas
                         MIm  LA
lo mucho que siempre te amé.
          LA7       REm       SOL7
Aún conservo en mis labios
                      DO
tus besos y no sé por qué.


[INTRO] + Acompañamiento         //Exacto, lo mismo que en el INTRO.

 "Se me deshace el alma por el ansia de verte,
  y tu ausencia con nada en mi ser mitigo.
  Quizá no puedas salvarme, pero yo sí quererte.
  Y si al menos que me quieras no consigo,
  Déjame la dicha de poder yo ser... tu amigo..."


                           LA#      SOLm
Si no me quieres creer, mi vida, [R1]
                      DOm    FAm
hoy yo me alejaré de tí.  [R6]
                         LA#7     SOL7
¿Por qué quieres hacerme daño? [R7]
                          DOm     FAm
¿Por qué me haces sufrir así?  [R8]
                         DOm
¿Por qué quieres hacerme daño?
      SOL7                DO
¿Por qué me haces sufrir así?  [R5]


               ACX    RE7     SIm
Me muero por estar contigo.
                        MIm   LA
Me muero por volverte a ver.
             LA7      REm     SOL7
Me muero por besar tu boca,
                      DO
tu boca que tanto anhelé.


                ACX    RE7    SIm
Me muero porque tú  me creas       // Se baja el volumen para terminar.
                         MIm  LA
lo mucho que siempre te amé.
          LA7       REm       SOL7
Aún conservo en mis labios
                      DO
tus besos y no sé por qué...


---------------------------------------------------------------------
Esta canción me la pidieron hace mucho, y la había transcrito, sólo que
esta página nos pide poner los TABS en líneas de menos de 75 letras, lo
que me afectó algo al momento de reacomodar el archivo para subirlo, en
fin, creo que de cualquier forma vale la pena hacerlo.

            
            
Suggest correction
Creating personal tab
Creating personal tab
You can edit any tab online and save it as your Personal.

You can edit, replace or remove any tab part or add personal notes – all changes will be seen only by you.

Personal tabs can be accessed anytime from any device, even offline.
Learn more »
Give kudos to tab author, rate the tab!
1 2 3 4 5
comments
print report bad tab
guest
Wanna post a correction for this tab? Suggest correction