Oops, an error
Loading. Please wait.

Mil Razones tab

27 views 1 this week
no commentswrite comment
1 2 3 4 5
3 more votes to show rating
add to favorites
×
Save as Personal and add changes to this tab that will be seen only by you. Learn more ›
×
You can save this tab as Personal to edit and correct it or add notes. All changes will be seen only by you. Learn more »
launch autoscroll
font size
0
reset
how to read this tab
guitar tuner
edit
Autoscroll
slow
fast
+/-
esc
set tempo
stop
Intro   Riff 1  (2)   Riff 2


Riff 1
    A            C#7    D Bm             E
e---9---9-9-9-7-5-9----10---10-10-10-9-7-5--7-5-4-----------
B-----------------------------------------------------------
G---9---9-9-9-7-6-10---11---11-11-11-9-7-6--7-6-4-----------
D-----------------------------------------------------------
A-----------------------------------------------------------
E-----------------------------------------------------------

Riff 2

e--5-------------
B---5------------
G----7-5-5h7-5---
D----------------
A----------------
E----------------

        Am
En los momentos,
                         A7                Dm
en que el romance hace dichosa nuestra entrega,
          E7                            Am
tu me preguntas el porque también se ruega,
            Dm             Am
porque se adora, porque se llora,
            F    E            Am
porque se quiere, porque se muere,
           B7            E7
y si hay motivo, para quererse.

CORO
         A           C#7                   F#m
Para quererte, no necesitas ser divina como diosa,
       Em         A7         D
ni necesitas el perfume de las rosas,
          F#7            Bm
ni ser radiante, ni ser esposa.

         D         Dm      E7          A        G  F#7
Para quererte, no necesitas poseer, ningún hechizo,
         Bm                 B7
para adorarte, yo sé muy bien que el mismo Dios,
       E7
me dio permiso.

SOLO  Riff 1    Riff 3


Riff 3
    A            C#7    D Bm             A       Em   A7
e---9---9-9-9-7-5-9----10---10-10-10-9-7-5--
B-------------------------------------------
G---9---9-9-9-7-6-10---11---11-11-11-9-7-6--
D-------------------------------------------
A-------------------------------------------
E-------------------------------------------

            D            Dm          E7               A      G
Y si te entregas, a compartir el mismo pan las mismas penas,
        F#7                          Bm
y a soportar mi pobre vida hasta la muerte,
          E              A F#m Bm E7
son mil razones para quererte,      para quererte.

            
            
Suggest correction
Creating personal tab
Creating personal tab
You can edit any tab online and save it as your Personal.

You can edit, replace or remove any tab part or add personal notes – all changes will be seen only by you.

Personal tabs can be accessed anytime from any device, even offline.
Learn more »
Give kudos to tab author, rate the tab!
1 2 3 4 5
comments
print report bad tab
guest
Wanna post a correction for this tab? Suggest correction