Oops, an error
Loading. Please wait.

Morir De Amor tab

version 3
version 3

Whole song

52 views 1 this week
no commentswrite comment
1 2 3 4 5
3 more votes to show rating
add to favorites
×
Save as Personal and add changes to this tab that will be seen only by you. Learn more ›
×
You can save this tab as Personal to edit and correct it or add notes. All changes will be seen only by you. Learn more »
launch autoscroll
font size
0
reset
how to read this tab
guitar tuner
edit
Autoscroll
slow
fast
+/-
esc
set tempo
stop
Original en D#m aquí se toca con capo en el primer traste para
la guitarra y el requinto.

Este tab. esta original para requinto si lo quieren tocar con
la guitarra pongan el capo en el sexto traste.

* Este signo significa que son trémolos.


                Gm      C7                F        Bb
6|-------------------------|-------------------------|
5|-------------------------|-------------------------|
4|-------------------------|-------------------------|
3|-2-2---------------------|-0-0-2-------------------|
2|-----0-1-3---------------|-------0-1-3-------------|
1|-----------0-5-3-1-1-----|-------------3-1-0-0-----|
*
2|---------------8-8-8-----|---------------8-8-8-----|
1|---------------------8-7-|-7-7-7-7-7-7-7-------7-5-|

                 A7            Dm
6|---------------------|---------|
5|---------------------|---------|
4|-3-3-----------------|---------|
3|-----0-2-------------|---------|
2|---------0-1---3-----|-3---3-1-|
1|-------------0-------|---0-----|
*
2|---------------6-----|---------|
1|-5-5-5-5-5-5-5---5-4-|-4-4-4-5-|


                    Gm  C7
Busco frenar a mi camino
                     F   Bb
Y me resisto a mi destino
                         A7
Que encontrara un solo final
          Dm
Morir de amor.

                         Gm    C7
Aunque me juzguen por quererte
                            F    Bb
Yo se que en ti estará mi muerte
                    A7
Que mi destino me marco
          Dm  D7
Morir de amor.

          Gm  C7
Morir de amor
                       F          Bb
Que sin pensar en las noches llore
                    Gm           Dm
Amargo llanto que jamás controle
                Dm                A7   Dm
Mi destino eres tu mi condena es amar.

                        Gm    C7
Lejos de ti busco encontrarte
                     F    Bb
Cerca de mi debo alejarte
                      A7
Y sin tu amor eh de morir
          Dm
Morir de amor.


                 Gm      C7                F        Bb
6|-------------------------|-------------------------|
5|-------------------------|-------------------------|
4|-------------------------|-------------------------|
3|-2-2---------------------|-0-0-2-------------------|
2|-----0-1-3---------------|-------0-1-3-------------|
1|-----------0-5-3-1-1-----|-------------3-1-0-0-----|
*
2|---------------8-8-8-----|---------------8-8-8-----|
1|---------------------8-7-|-7-7-7-7-7-7-7-------7-5-|

                 A7            Dm  D7
6|---------------------|---------|
5|---------------------|---------|
4|-3-3-----------------|---------|
3|-----0-2-------------|---------|
2|---------0-1---3-----|-3---3-1-|
1|-------------0-------|---0-----|
*
2|---------------6-----|---------|
1|-5-5-5-5-5-5-5---5-4-|-4-4-4-5-|


?A veces siento que se me escapan las fuerzas,
Y el aliento, y la vida, y en la vida te me vas tu.
Aunque naces conmigo a cada instante y vuelvo a morir de ti?

          Gm  C7
Morir de amor
                     F               Bb
Ya no me queda otra cosa que intentar
                  A7
Que otra cosa no pueda encontrar
              Dm               A7  Dm
Solamente aceptar recibir el final.

                      Gm   C7
Mi primavera se hace otoño
                      F  Bb
Se marchito con tu cariño
                     A7
Que mi destino me marco
          Dm   D7
Morir de amor.
          Gm   A7
Morir de amor,
          Dm
Morir de amor.

            
            
Suggest correction
Creating personal tab
Creating personal tab
You can edit any tab online and save it as your Personal.

You can edit, replace or remove any tab part or add personal notes – all changes will be seen only by you.

Personal tabs can be accessed anytime from any device, even offline.
Learn more »
Give kudos to tab author, rate the tab!
1 2 3 4 5
comments
print report bad tab
guest
Wanna post a correction for this tab? Suggest correction