Oops, an error
Loading. Please wait.

No Te Vayas Entonces tab

version 1
version 1

Whole song

25 views 1 this week
no commentswrite comment
1 2 3 4 5
3 more votes to show rating
add to favorites
×
Save as Personal and add changes to this tab that will be seen only by you. Learn more ›
×
You can save this tab as Personal to edit and correct it or add notes. All changes will be seen only by you. Learn more »
launch autoscroll
font size
0
reset
how to read this tab
guitar tuner
edit
Autoscroll
slow
fast
+/-
esc
set tempo
stop
 +---------------------------------------------------------------------------------+
 | Nos encontramos de nuevo con otra maravillosa canción, esta es muy hermosa,     |
 | Pero bueno, a pesar de parecer extensa y tediosa traté de hacerlo lo mejor      |
 | Posible, así que, los dejo con ella...                                          |
 +---------------------------------------------------------------------------------+

----------------------------------------------------------------------------------------------------------
[ INTRO Y ACOMPAÑAMIENTO ]  Este adorno se toca al inicio y al intermedio de la canción.

Explicación:
            Si ven una tablatura completa (con las seis cuerdas) significa que la guitarra principal es la
            que toca esa parte, y si ven debajo de esta tablatura una incompleta (con sólo dos cuerdas) es
            porque hay una segunda guitarra que también toca al mismo tiempo, en este caso es un rasgeo que
            se toca junto a la melodía pricipal.

   SIm
6|----------------------------------------------------------------------------------------------------------------
5|----------------------------------------------------------------------------------------------------------------
4|----------------------------------------------------------------------------------------------------------------
3|--------------------------------4----------------------------------------------------4--------------------------
2|--------------------3--3--2--2--3----0--2--3-----------------------------3--3--2--2--3----0--2--3---------------
1|-------2--2--0--0---2--2--0--0----------------0--2--3--2-----2--2--0--0--2--2--0--0----------------0--2--3--0---

   MIm
6|--------------------------------------------------------------
5|--------------------------------------------------------------
4|--------------------------------------------------------------
3|--------------------------------------------------------------
2|------------------8--8--7--7--5--5----5--7--8-----------------
1|------7--7--5--5-------------------------------5--7--8--7-----

               LA           RE             SOL          MIm             SOL                      FA#      SIm
6|-----------------------------------------------------------------------------------------------------------
5|-----------------------------------------------------------------------------------------------------------
4|-----------------------------------------------------------------------------------------------------------
3|-----------------------------------------------------------------------------------------------------------
2|--------------------------10----10-----------------10--8-----8--10--------10--10--8--8--7--7--5--7---------
1|---7--9--10--10--9--9--7------------7--9--9--7--7-------------------7--7-----------------------------------

2|-----------------------------------------3-3-3-3-3-3-3-5-5-5-5-5-5-5-5-3-3-3-3-3-3-3-3-3-3-3-3-3-2-2-2-2-2-
1|-------------3-3-3-3-3-3-3-5-5-5-5-5-5-5-------------------------------------------------------------------

 *En el rasgeo el número de dígitos no simbolizan la duración exacta, pero es fácil ejecutarlos sabiendo que
  por cada cambio de acorde en el acompañamiento, se cambia de traste y/o de cuerda en el rasgeo.

               LA           RE             SOL          MIm             SOL                        FA#
6|-----------------------------------------------------------------------------------------------------------|
5|-----------------------------------------------------------------------------------------------------------|
4|-----------------------------------------------------------------------------------------------------------|
3|-----------------------------------------------------------------------------------------------------------|
2|--------------------------10----10-----------------10--8-----8--10--------10--10--8--8--7--7--5--7~8-------|
1|---7--9--10--10--9--9--7------------7--9--9--7--7-------------------7--7-----------------------------------|

2|-----------------------------------------3-3-3-3-3-3-3-5-5-5-5-5-5-5-5-3-3-3-3-3-3-3-3-3-3-3-3-3-2-2-2-2---
1|-------------3-3-3-3-3-3-3-5-5-5-5-5-5-5-------------------------------------------------------------------

* En la última parte del adorno, se ve esta escritura: ---7~8-----|, significa que se toca el traste número 7, pero
  mientras suena se presiona con un dedo el traste 8 por un instante, y se suelta, y se vuelve a presionar, y así
  simultáneamente hasta que se vaya perdiendo el sonido poco a poco.

-------------------------------------------------------------------------------------------------------------------

RIFFS (Adornos)

Los adornos que se tocan a lo largo de la canción, se derivan del INTRO, pues son partes de él.

[ RIFF 1 ]:
      6|----------------------------------------------|
      5|----------------------------------------------|
      4|----------------------------------------------|
      3|----------------------------------------4-----|
      2|------------------------3---3---2---2---3-----|
      1|-------2---2---0---0----2---2---0---0---------|


[ RIFF 2 ]:
               LA           RE             SOL          MIm             SOL                      FA#
6|-----------------------------------------------------------------------------------------------------------|
5|-----------------------------------------------------------------------------------------------------------|
4|-----------------------------------------------------------------------------------------------------------|
3|-----------------------------------------------------------------------------------------------------------|
2|-----------------------------------------3-3-3-3-3-3-3-5-5-5-5-5-5-5-5-3-3-3-3-3-3-3-3-3-3-3-3-3-2-2-2-2-2-|
1|-------------3-3-3-3-3-3-3-2-2-2-2-2-2-2-------------------------------------------------------------------|

 *En el rasgeo el número de dígitos no simbolizan la duración exacta, pero es fácil ejecutarlos sabiendo que
  por cada cambio de acorde en el acompañamiento, se cambia de traste y/o de cuerda en el rasgeo.

--------------------------------------------------------------------------------------------------------------------

Ahora sí, Vamos con la canción...


[ INTRO Y ACOMPAÑAMIENTO ]  SIm
No, no te vayas amor mío

quédate un poquito más
             [R1]                              MIm
pasará, ya lo verás


Si aún me quieres amor mío

quédate un poquito más
           LA           RE
quédate conmigo un poco más
      SOL            MIm
pues afuera en el jardín
        SOL                   FA#
la rosa más hermosa aún no floreció.

              [R2]                              SIm           MIm       RE
    Y yo amor mío no te dí
        SOL              MIm
todo lo bueno que hay en mí
           SOL                   FA#
aún no te amé ni te besé como yo sé.

           [R1]                                 SIm
No no te vayas amor mío

quédate un poquito más
          [R1]                                  MIm
cambiará no sé porqué

tras la tormenta el cielo aclara,

brillará de nuevo el sol.


         LA          RE
Serás la reina de la vida
     SOL       MIm
cantarás y soñarás
       SOL                 FA#
y yo contigo soñaré y cantaré


[ INTRO Y ACOMPAÑAMIENTO ]


SIm           MIm       RE
    Y yo amor mío no te dí
        SOL              MIm
todo lo bueno que hay en mí
           SOL                   FA#
aún no te amé ni te besé como yo sé.

           [1]                                 SIm
No no te vayas amor mío

quédate un poquito más
          [1]                                  MIm
cambiará no sé porqué

tras la tormenta el cielo aclara,

brillará de nuevo el sol.


         LA          RE         >    

            
            
Suggest correction
Creating personal tab
Creating personal tab
You can edit any tab online and save it as your Personal.

You can edit, replace or remove any tab part or add personal notes – all changes will be seen only by you.

Personal tabs can be accessed anytime from any device, even offline.
Learn more »
Give kudos to tab author, rate the tab!
1 2 3 4 5
comments
print report bad tab
guest
Wanna post a correction for this tab? Suggest correction