Oops, an error
Loading. Please wait.

Por Amor Vale La Pena tab

39 views 1 this week
no commentswrite comment
1 2 3 4 5
3 more votes to show rating
add to favorites
×
Save as Personal and add changes to this tab that will be seen only by you. Learn more ›
×
You can save this tab as Personal to edit and correct it or add notes. All changes will be seen only by you. Learn more »
launch autoscroll
font size
0
reset
how to read this tab
guitar tuner
edit
Autoscroll
slow
fast
+/-
esc
set tempo
stop
LA SIGUIENTE TRANSCRIPCIÓN ES EL INTRO Y EL ADORNO DE LA PARTE DE EN MEDIO DE LA CANCIÓN:

'POR AMOR VALE LA PENA', DE LA RONDALLA DE SALTILLO, DEL ÁLBUM 20 AÑOS DE AMOR...


LA PRIMER GUITARRA ES EL ARREGLO PRINCIPAL, MIENTRAS QUE LA SEGUNDA GUITARRA ES EL ADORNO DE FONDO, CUYA EJECUCIÓN ES
RASGEADA Y SIN PAUSAS..


PRIMERA GUITARRA (PRINCIPAL):
 \
  6|----------------------------------------------------------------------------------------------------------------------------------------------------|
  5|----------------------------------------------------------------------------------------------------------------------------------------------------|
  4|----------------------------------------------------------------------------------------------------------------------------------------------------|
  3|----------------------------------------------------------------------------------------------------------------------------------------------------|
  2|-4---5---7----4---7---5---4---5-----------8---9-------8---9-------------------9-----------9-----------------------------7---9-------7---------------|
  1|--------------------------------------------------6-----------6---7---------------6---7-------11---9---11---9-------------------6-------9---7---7---|
 /


SEGUNDA GUITARRA (DE FONDO ):
 \
  6|----------------------------------------------------------------------------------------------------------------------------------------------------|
  5|----------------------------------------------------------------------------------------------------------------------------------------------------|
  4|----------------------------------------------------------------------------------------------------------------------------------------------------|
  3|----------------------------------------------------------------------------------------------------------------------------------------------------|
  2|------------------5-5-5-5-5-5-5-5--9-9-9--7-7-7-7-7-7-7-7-7-7-7-7--9-9--7-7--5-5-5-5-5-5-5-5-5-5-5-5-5-5-5-5-5-5-5-5--2-2-2-2-2-2-2-2-2-2-2--4-4-4-4|
  1|-----------------4-4-4-4-4-4-4-4--7-7-7--6-6-6-6-6-6-6-6-6-6-6-6--7-7--6-6--4-4-4-4-4-4-4-4-4-4-4-4-4-4-4-4-4-4-4-4--2-2-2-2-2-2-2-2-2-2-2--2-2-2-2-|
/

            
            
Suggest correction
Creating personal tab
Creating personal tab
You can edit any tab online and save it as your Personal.

You can edit, replace or remove any tab part or add personal notes – all changes will be seen only by you.

Personal tabs can be accessed anytime from any device, even offline.
Learn more »
Give kudos to tab author, rate the tab!
1 2 3 4 5
comments
print report bad tab
guest
Wanna post a correction for this tab? Suggest correction