Oops, an error
Loading. Please wait.

Sellado Con Un Beso tab

65 views 1 this week
no commentswrite comment
1 2 3 4 5
3 more votes to show rating
add to favorites
×
Save as Personal and add changes to this tab that will be seen only by you. Learn more ›
×
You can save this tab as Personal to edit and correct it or add notes. All changes will be seen only by you. Learn more »
launch autoscroll
font size
0
reset
how to read this tab
guitar tuner
edit
Autoscroll
slow
fast
+/-
esc
set tempo
stop
   Em    Am      Em   Am   D G  Em  Am  D   B7    Em Am  B7 Em
e.-------------------------------0-----------------------------
b.-----00-------------011-33-0--0-3101-----3100-0--------------
c.---00--2-----0-0-------2--2------------------2-0--------20---
d.-22-----------4-2-------------------------------2---------42-
a.-------------------------------------------------------------
e--------------------------------------------------------------

   Em    Am      Em   Am   D G  Em  Am  D   B7    Em Am  B7 Em
e.-------------------------------0-----------------------------
b.-----00-------------011-33-0--0-3101-----3100-0--------------
c.---00--2-----0-0-------2--2------------------2-0--------20---
d.-22-----------4-2-------------------------------2---------42-
a.-------------------------------------------------------------
e--------------------------------------------------------------


   A    Em   A     Em   A      Em  F#m   B7       Am B7   Em
e.-------------------------------------------000-------------
b.--220-00-----2220-0-----2220-00- 222024-------0------------
c.-----2-----------2----------2------------------202----00---
d.-2---------2----------2---------------------------------42-
e.-----------------------------------------------------------
f.-----------------------------------------------------------

   Am  D    G Em  Am D
e.----------------------
b.-011-33-0----0--------
c.----2--2----0-3101----
d.----------------------
e.----------------------
f.----------------------


  B7    Em  Am   B7   Em    B7   Em     B7   Em
e.------0---------------------------------------
b.--3310----------------------------------------
c.-2---------------0-----------0-----------0----
d.---------------24-402------24-402------24-402-
e.----------------------------------------------
f.----------------------------------------------

Intro :   SI7  MIm  SI7  MIm

                   LAm      SI7
Cuando yo te diga adiós
        MIm
en el verano
  LAm       RE        SOL
prometo que te escribiré
     MIm          LAm     RE
mis cartas y mi amor
        SI7   MIm    LAm
con un beso sellado
SI7      MIm
yo te mandaré.
            LAm      SI7
El verano pasaré
   MIm
solitario
   LAm    RE      SOL
pensando solo en ti
    MIm        LAm     RE
soñando solo en ti
       SI7       MIm     LAm
 cada día, una carta
SI7               MIm
yo te escribiré.

  LA              MIm
Tu cara, tu sonrisa
  LA              MIm
por todas partes veré
  LA              MIm
y cuando quiera abrazarte
FA#                  SI7
tú no estarás junto a mí.
               LAm      SI7
El momento llegará
     MIm
de marcharme
    LAm      RE      SOL
y un beso yo te daré
  MIm         LAm     RE
después de prometer
SI7             MIm    LAm
volver en septiembre
SI7        MIm
mi amor sellaré.

?Quizás la distancia quiere separarnos,
en el florido verano extrañaré tu cara,
tus besos, pero vendrá un momento
en que todo tu vivir, quedará en mí
sellado con un beso.?
 LA              MIm
Tu cara, tu sonrisa
  LA              MIm
por todas partes veré
  LA              MIm
y cuando quiera abrazarte
FA#                  SI7
tú no estarás junto a mí.
               LAm      SI7
El momento llegará
     MIm
de marcharme
    LAm      RE      SOL
y un beso yo te daré
  MIm         LAm     RE
después de prometer
SI7             MIm    LAm
volver en septiembre
SI7        MIm
mi amor sellaré

            
            
Suggest correction
Creating personal tab
Creating personal tab
You can edit any tab online and save it as your Personal.

You can edit, replace or remove any tab part or add personal notes – all changes will be seen only by you.

Personal tabs can be accessed anytime from any device, even offline.
Learn more »
Give kudos to tab author, rate the tab!
1 2 3 4 5
comments
print report bad tab
guest
Wanna post a correction for this tab? Suggest correction