Oops, an error
Loading. Please wait.

Wendolyne tab

version 4
version 4

Whole song

29 views 1 this week
no commentswrite comment
1 2 3 4 5
1 last vote to show rating
add to favorites
×
Save as Personal and add changes to this tab that will be seen only by you. Learn more ›
×
You can save this tab as Personal to edit and correct it or add notes. All changes will be seen only by you. Learn more »
launch autoscroll
font size
0
reset
how to read this tab
guitar tuner
edit
Autoscroll
slow
fast
+/-
esc
set tempo
stop
"WENDOLYNE"

Ritmo: Bolero ()
    Gm    C     F     Dm    A7
e|--3-- --0-- --1-- --1-- --0--
b|--3-- --1-- --1-- --3-- --2--
G|--3-- --0-- --2-- --2-- --0--
D|--5-- --2-- --3-- --0-- --2--
A|--5-- --3-- --3-- ----- -----
E|--3-- ----- --1-- ----- -----


e|----0-1---3-5--5/6---6-5-3---3-1-0---0-1-0-
b|--3----------------------------------------
G|-------------------------------------------
D|-------------------------------------------
A|-------------------------------------------
E|-------------------------------------------


e|---------------------5---5---5-
b|--3-1-3---------------6---5---3
G|-------------------------------
D|-------------------------------
A|-------------------------------
E|-------------------------------

****************************************************************
e|---------------10--9--10---------------------- Guitarra 2
b|---------------------------------------------- es un tremoledo

e|----0-1---3-5--5/6---6-5-3---3-1-0---0-1-0-
      empieza aqui   de la tablatura anterior
****************************************************************

              Gm               C                  F
Tan dentro de mí conservo el calor que me hace sentir
             Dm                Gm                 Dm
conservo tu amor tan dentro de mí que aún puedo vivir
             A7              Dm (corte aqui)
muriendo de amor muriendo de ti


                Gm                 C                    F
Como buscan las olas la orilla del mar, como busca un marino
                 Dm                        Gm
su puerto y su hogar yo he buscado en mi alma     (en los 3 ultimos
              A7                   Dm  A7      Dm  solo se rasguea)
queriéndote hallar y tan solo encontre mi  soledad

******************************************************************
e|------------------6-5-3---5-3-1---3-1-0(corte)-- Tremoleo igual
b|------------------------------------------------ 2 guitarra
empieza en donde dice ¨olas...¨
******************************************************************
                   Gm               C
A pesar de estar lejos tan lejos de mí
                 F                 Dm
A pesar de otros besos quizas wendolyne
                   Gm                     A7                     Dm(corte)
aún recuerdes el tiempo de aquel nuestro amor aún te acuerdes de mí

********************************************************************
              POEMA

         Gm                            C
Wendolyne, se quiebra mi voz al nombrarte
               F
mi mirar se nubla al recordarte
    Dm
y pensar que en dos manos
    Gm                     Dm
un día se unieron dos almas            Primero empieza la
                    A7                 tab y LA voz empieza
y de aquello de ayer                   en la flecha
             Dm (corte)
ya nada quedó
                       
                   
                   
e|----0-0h1------3-5-5/6---6-5-3---1-3-1-3-1-0 Guitarra 2
b|--3-----------------------------------------
G|--------------------------------------------
D|--------------------------------------------
A|--------------------------------------------
E|--------------------------------------------


e|------0-6h8-6-5--5-3-1------0-1-0-1-0-------
b|--1-3---------------------------------3-----
G|--------------------------------------------
D|--------------------------------------------
A|--------------------------------------------
E|--------------------------------------------


e|--------1--3h5-3----3-1-0-------------------
b|------3-----------------------3-5-3-5-3-2---
G|--2-3---------------------------------------
D|--------------------------------------------
A|--------------------------------------------
E|--------------------------------------------


e|5-5-1h3-1-0-------5---5---5--
b|------------3-------6---5---3
G|-----------------------------
D|-----------------------------
A|-----------------------------
E|-----------------------------
*************************************************************

                    Gm                         C
Aún recuerdo aquel ayer cuando estabas junto a mí
                    F              Dm
tú me hablabas del amor yo podía soreir
                    Gm  Dm      A7           Dm (corte)
aun recuerdo aquel amor y ahora te alejas de mí


                   Gm                    C
Le he pedido al silencio que me hable de ti
                 F                   Dm
he vagado en las noches queriendote oir
                   Gm                A7
y al murmullo del viento le he oído decir
                Dm    Gm    Dm(corte)
tu nombre wendolyne.

e|------------------6-5-3---5-3-1---3-1-0(corte)-- Tremoleo igual
b|------------------------------------------------ 2 guitarra
empieza en ¨siLENcio

            
            
Suggest correction
Creating personal tab
Creating personal tab
You can edit any tab online and save it as your Personal.

You can edit, replace or remove any tab part or add personal notes – all changes will be seen only by you.

Personal tabs can be accessed anytime from any device, even offline.
Learn more »
Give kudos to tab author, rate the tab!
1 2 3 4 5
comments
print report bad tab
guest
Wanna post a correction for this tab? Suggest correction