Oops, an error
Loading. Please wait.

Yo Soy Aquel tab

21 views 1 this week
no commentswrite comment
1 2 3 4 5
3 more votes to show rating
add to favorites
×
Save as Personal and add changes to this tab that will be seen only by you. Learn more ›
×
You can save this tab as Personal to edit and correct it or add notes. All changes will be seen only by you. Learn more »
launch autoscroll
font size
0
reset
how to read this tab
guitar tuner
edit
Autoscroll
slow
fast
+/-
esc
set tempo
stop
*********************************************************
* Esta canción me gusta muchísimo, tanto que a ustedes  *
* también podría facinarles; Es una verdadera joya para *
* el corazón, y con toda mi atención a las notas, aquí  *
* les envío mi forma de verla; espero no equivocarme,   *
* así que por favor no la ignoren si la ven... Podrían  *
* identificarse con esta melodía al escucharla...       *
*********************************************************

VAMOS CON LOS RIFFS:

-----------------------------------------------------------------------------
*INTRO y Acompañamiento:

             SOL       LA7                RE          SIm
6|------------------------------------------------------------------
5|------------------------------------------------------------------
4|------------------------------------------------------------------
3|------------------------------------------------------------------
2|-------------------10-10-------10-------------10--8--7------------
1|--7--9--10-10---7------------------7--9--9------------------------

              SOL                FA#                 SIm
6|---------------------------------------------------------------------------|
5|---------------------------------------------------------------------------|
4|---------------------------------------------------------------------------|
3|---------------------------------------------------------------------------|
2|--7--8--10-----8--10-----10--------10--------------------------------------|
1|------------7---------7------7--9------7--9--10--9--10--9--7----10--9--7---|


-----------------------------------------------------------------------------

*RIFF1 y Acompañamiento:

   MIm          LA7          RE                    SIm
6|----------------------------------------------------------------
5|----------------------------------------------------------------
4|----------------------------------------------------------------
3|----------------------------------------------------------------
2|----------------------------------------------------------------
1|-3-3-3-3-3-3--5-5-5-5-5-5--2-2-2-2-2-2--0-0-0-0--2-2-2-2-2------
 
*Esto se hace 3 veces,TRES VECES. Después, se hace este:

   SOL                             FA# 
6|---------------------------------------------------------------|
5|---------------------------------------------------------------|
4|---------------------------------------------------------------|
3|---------------------------------------------------------------|
2|---------------------------------------------------------------|
1|-3-3-3-3-3-3-3-3-3-3-3-3-3-3-3-3--2-2-2-2-2-2-2-2-2-2-2-2-2-2--|


*El número de anotaciones no simboliza exactamente la cantidad de
 punteos que se deben hacer.

*Este se toca a lo largo de todo un párrafo

----------------------------------------------------------------------------

RIFF2 y Acompañamiento:

           SIm                           MIm             
6|--------------------------------------------------->
5|--------------------------------------------------->
4|--------------------------------------------------->
3|--------------------------------------------------->
2|-0--2--3--3-----3---------------------------------->
1|-------------------0--2--2--2-----3--5--5--0--0---->


            LA7                        REm       SIm
6|---------------------------------------------------|
5|---------------------------------------------------|
4|---------------------------------------------------|
3|---------------------------------------------------|
2|------------------------------------------7--------|
1|-0--2--3--3----0--2--3--3--3----5--7--7------------|


*Este es el de la parte de enmedio de la canción

............................................................................

AHORA SÍ, VAMOS CON LA CANCIÓN:


INTRO y Acompañamiento

        SIm
Yo soy aquel
                        MIm
que por quererte, da la vida
        LA7
Yo soy aquel 
                           RE     SIm
que estando lejos, no te olvida
          MIm     LA7             
el que te sueeeeeeña,
            FA#m     SIm
el que te espeeeeeeeera,
          SOL
aquel que reza, cada noche       
        FA#
por tu amor


        SIm
Yo soy aquel
                        MIm
que por quererte, da la vida
        LA7
Yo soy aquel 
                           RE     SIm
que estando lejos, no te olvida
          MIm     LA7             
el que te sueeeeeeña,
            FA#m     SIm
el que te espeeeeeeeera,
          SOL        FA#
aquel que reza, cada noche       
        SIm
por tu amor


          MIm   LA7          RE      SIm  MIm   LA7          RE      SIm
Ya estoy aquí, aquí, para adorarte
          MIm   LA7          RE      SIm
Ya estoy aquí, aquí, para decirte
         SOL           FA#
que como yo, nadie te amó.


RIFF2 y Acompañamiento


          MIm     LA7             
el que te sueeeeeeña,
            FA#m     SIm
el que te espeeeeeeeera,
          SOL        FA#
aquel que reza, cada noche       
        SIm
por tu amor


          MIm   LA7          RE      SIm   MIm   LA7          RE      SIm
Ya estoy aquí, aquí, para adorarte
          MIm   LA7   
Ya estoy aquí, aquí...

............................................................................

* Dedico como siempre este trabajo a mis hermanos 'Voces'.

* Y también a todas las chicas que se encuentren envueltas
  en el romanticismo de los acordes y letras de las rondalla.
  
P.D. Pueden enviarme sus críticas y cualquier comentario
     será muy bien recibido. Espero que les sirva aunque 
     sea un poquito esta transcripción...

Atte: 
    
<_el murci>

            
            
Suggest correction
Creating personal tab
Creating personal tab
You can edit any tab online and save it as your Personal.

You can edit, replace or remove any tab part or add personal notes – all changes will be seen only by you.

Personal tabs can be accessed anytime from any device, even offline.
Learn more »
Give kudos to tab author, rate the tab!
1 2 3 4 5
comments
print report bad tab
guest
Wanna post a correction for this tab? Suggest correction