Oops, an error
Loading. Please wait.

Sigues Dando Vueltas tab

version 1
version 1

Whole song

250 views 1 this week
no commentswrite comment
1 2 3 4 5
2 more votes to show rating
add to favorites
×
Save as Personal and add changes to this tab that will be seen only by you. Learn more ›
×
You can save this tab as Personal to edit and correct it or add notes. All changes will be seen only by you. Learn more »
launch autoscroll
font size
0
reset
how to read this tab
guitar tuner
edit
Autoscroll
slow
fast
+/-
esc
set tempo
stop
EL INTRO DE LA CANCION

BUENO AMIGOS AQUÍ VA UNA CANCIÓN QUE POR ESTOS DÍAS A SONADO
 MUCHO Y ES MUY BONITA
Y EN LAS FOGATAS NO PUEDE FALTAR.. MELANCÓLICA DE PARTE DE WENSE


             DO        RE         SOL

e----------------3-3-/-5-5-------------3-----------
b--------------5-5-5-/-7-7-------------------------
g------------5-5-----------7--4------4--4----------
d------------5-------------7--5----5---------------
A--------------------------------------------------
E-----------------------------3---3-----------------

             DO      RE      MIm

e----------------------5-----7--------7--10----------------
b--------------5-5-/-7-7-7---8-------8------8-8------------
g------------5-5-5-/-7---7---9------9----------------------
d------------5---------------------9-----------------------
A---------------------------------7------------------------
E--------------------------------7-------------0-p-7-0-p-7-

*NOTA PARA DARLE OTRO ESTILO TOKEN LAS NOTAS CON CEJILLO Y OTRAS
 CON LAS NOTAS NORMAL
AHI VALLAN VARIANDO

DO        RE         SOL
Quise mentir y aqui estoy
DO        RE         SOL
quise no ser y aún soy
DO    RE             SOL      DO         SOL
quise volar con mis sueños pero tu silueta
RE       DO
lo desvarato
DO       RE           SOL
Hace mil años tal vez
DO        RE         SOL
yo habria sido tu rey
DO     RE         SOL      DO         SOL     RE          DO
luchar con muchos dragones y desde mi trono hacerte el amor
LAm       SIm    MIm
Dime donde quedo
LAm       SIm    MIm
ese extraño poder
DO      RE     SOL     DO    SOL     RE        DO
Entrar por una ventana y nunca salirte de mi corazón
MIm        RE        LAm       RE        SOL
debo admitir que todo es muy distinto sin ti
SOL      RE     DO  RE      SOL    RE       DO
sigues dando vueltas en mi cabeza, dando vueltas (x2)


DO         RE        SOL
Que no me apaguen la luz
DO      RE          SOL
que necesito encontrar
DO        RE      SOL       DO          SOL     RE       SOL
buscar en cada rinkón los pedazos del tiempo que vimos crecer
LAm      SIm           MIm
Y al fin de esto es igual
LAm     SIm     MIm
Alguno debe llorar
DO         RE     SOL          DO       SOL       RE    DO
mentir por última vez y aunque sea un poquito para revivir.
MIm     SIm              LAm       RE     SOL
debo admitir que todo es muy distinto sin ti

SOL      RE     DO   RE      SOL    RE       DO
Sigues dando vueltas en mi cabeza dando vueltas (x2)

(PUNTEO DE GUITARRA)


e||------------------------------9-10-12----------|
B||------------------------10-12------------------|
G||----------------9-11-12------------------------|
D||--------9-10-12--------------------------------|
A||--10-12----------------------------------------|
E||-----------------------------------------------|

e|--12h14-12---b8r7-5---|---5----5--|--9h10h9----------|
B|----------------------|---5h7--5--|---------10-------|
G|----------------------|-----------|------------9h7h6-|
D|----------------------|-----------|------------------|
A|----------------------|-----------|------------------|
E|----------------------|-----------|------------------|


e|----12h14-12---b8r7-5|-----5----5--|--5--5----5------|
B|---------------------|-----5h7--5--|--5--5-7--5------|
G|---------------------|-------------|-----------------|
D|---------------------|-------------|-----------------|
A|---------------------|-------------|-----------------|
E|---------------------|-------------|-----------------|


y AQUI SUBE

LA        MI             RE         MI     LA
Debo admitir que todo es muy distintoo sin tiiii

MI     RE
dando vueltas
LA        MI             RE        MI      LA    OUTRO LA-RE-MI
Debo admitir que todo es muy distintoo sin tiiii

CUALKER COSA FACEBOOK ANDREE ORELLANA RODRIGUEZ

            
            
Suggest correction
Creating personal tab
Creating personal tab
You can edit any tab online and save it as your Personal.

You can edit, replace or remove any tab part or add personal notes – all changes will be seen only by you.

Personal tabs can be accessed anytime from any device, even offline.
Learn more »
Give kudos to tab author, rate the tab!
1 2 3 4 5
comments
print report bad tab
guest
Wanna post a correction for this tab? Suggest correction