Oops, an error
Loading. Please wait.

Vuelo tab

75 views 1 this week
no commentswrite comment
1 2 3 4 5
3 more votes to show rating
add to favorites
×
Save as Personal and add changes to this tab that will be seen only by you. Learn more ›
×
You can save this tab as Personal to edit and correct it or add notes. All changes will be seen only by you. Learn more »
launch autoscroll
font size
0
reset
how to read this tab
guitar tuner
edit
Autoscroll
slow
fast
+/-
esc
set tempo
stop
Weno un temazo de este gran grupo Vacazul!!!!!


VUELO!!!! JAJAAJA


Intro y fraseo del bajo:

e------------------------------------------------------------------------
b------------------------------------------------------------------------
g------------------------------------------------------------------------
d-----4-4------4-4------4-4------4-4------4-4------4-4------3-3-----3-3-
a------------------------------------------------------------------------
E-2-2------2-2-------2-2------2-2------5-5------5-5------4-4-----4-4-----

Intro de guitarra:(entra en la 3º repeticion del bajo)

e------------------------------------------------------------------------
b------------------------------------------------------------------------
g------------------------------------------------------------------------
d-----------4-4------4-4------4-4------4-4------4-4------4-4------3-3----
a------------------------------------------------------------------------
E-0-0-0-2-2------2-2-------2-2------2-2------5-5------5-5------4-4-----4-

Riff de versos(al pricipio de cada frase de los versos):

e-----------
b-----------
d-----------
g-----------
a-----------
E-0-0-0-2-2-


Estribillo:(Bajo)


e-----------------------------------------------------------------------
b-----------------------------------------------------------------------
g-----------------------------------------------------------------------
d------6-6------6-6------4-4------4-4------3-3-----3-3-----4-4----------x3
a-----------------------------------------------------------------------
E-7-7------7-7-------5-5------5-5------4-4-----4-4-----5-5------7-7-5-5-


e-----------------------------------------------------
b-----------------------------------------------------
g-----------------------------------------------------
d------6-6------6-6------4-4------4-4-----------------x1
a----------------------------------------4-2----------
E--7-7------7-7------5-5------5-5------------5-4-2----


Estribillo:(Guitarra)
e---------------------------------------------------------------------
b---------------------------------------------------------------------
g---------------------------------------------------------------------
d-----6-6------6-6------4-4------4-4------3-3-----3-3----4-4--6-6-4-4-x3
a---------------------------------------------------------------------
E-7-7-----7-7-------5-5------5-5------4-4-----4-4-----5-5-------------


e---------------------------------------------------
b---------------------------------------------------
g---------------------------------------------------
d------6-6------6-6------4-4------4-4---------------x1
a----------------------------------------4-2--------
E--7-7------7-7------5-5------5-5------------5-4-2--


Puente:(bako i guitarra igual)

e--------------------------------------------
b--------------------------------------------
g--------------------------------------------
d--------------------------------------------x4
a--------2---5-4-2-----4-2-------------2-4---
E--2-4-5---2-------5-------5-4---4-4-5-------


El bajo ace la intro durante los versos y la guitarra el riff de versos
(al pricipio de cada frase de los versos)

ESTRUCTURA:


Versos:
Creo que es hoy
El dia que por fin
Voy a perder la razon..
No hize caso
A los que me decian
No pienses no sientas no enseñes tus cosas
Me estoy consumiendo
Y nazco de nuevo
Me estoy comvirtiendo
En algo estereo


Estribillo:
Vuelo, vuelo y caigo entre tus besos
Vuelo, vuelo y caigo entre tus besos
Vuelo, vuelo y caigo entre tus besos
Vuelo, vuelo y caigo??.


Intro x2


Versos:
Miro hacia atrás
Y no puedo creer
Como podia vivir tampoco mi vida
Quiero explicarte
Que ahora tengo tiempo
Y no que pienso perder este momento
Toallas de chinchetas
Eran mis excusas
Nidos de alfileres
Estar sin verte


Intro x2


Estribillo:
Vuelo, vuelo y caigo entre tus besos
Vuelo, vuelo y caigo entre tus besos
Vuelo, vuelo y caigo entre tus besos
Vuelo, vuelo y caigo??.


Puente:
Vuelo?. vuelo?.. vuelo?


Intro x1


Versos:
Creo que es hoy
El dia que por fin
Voy a perder la razon..
No hize caso
A los que me decian
No pienses no sientas no enseñes tus cosas
Toallas de chinchetas
Eran mis excusas
Nidos de alfileres
Estar sin verte


Estribillo:
Vuelo, vuelo y caigo entre tus besos
Vuelo, vuelo y caigo entre tus besos
Vuelo, vuelo y caigo entre tus besos
Vuelo, vuelo y caigo entre tus besos.


Weno para lo demas:fallos correcciones o lo k sea aki me teneis!!!

marcelpierce34@

            
            
Suggest correction
Creating personal tab
Creating personal tab
You can edit any tab online and save it as your Personal.

You can edit, replace or remove any tab part or add personal notes – all changes will be seen only by you.

Personal tabs can be accessed anytime from any device, even offline.
Learn more »
Give kudos to tab author, rate the tab!
1 2 3 4 5
comments
print report bad tab
guest
Wanna post a correction for this tab? Suggest correction