Oops, an error
Loading. Please wait.

A Pasitos tab

21 views 3 this week
no commentswrite comment
1 2 3 4 5
3 more votes to show rating
add to favorites
×
Save as Personal and add changes to this tab that will be seen only by you. Learn more ›
×
You can save this tab as Personal to edit and correct it or add notes. All changes will be seen only by you. Learn more »
launch autoscroll
font size
0
reset
how to read this tab
guitar tuner
edit
Autoscroll
slow
fast
+/-
esc
set tempo
stop
Intro:

   D                       Bm    A
E:------------2------------2-2-2-0----------|
B:------------3-0----------3-3-3-2----------|
G:------------2-0----------4-4-4-2----------|
D:-------0-0----0--4-0-----4-4-4-2----------|
A:-0-0-2----------------0--2-2-2-2----------|
E:------------------------------------------|  X3

   G          A                  G          A
E:-------0------------5^7^5------------0--------10-------10-12^14-10-|
B:---0-3---3--5^7^5-3-------3------0-3---3--5^7----10-12-------------|
G:-2-----------------------------2-----------------------------------|
D:-------------------------------------------------------------------|
A:-------------------------------------------------------------------|
E:-------------------------------------------------------------------|


 D            G
A pasitos de bebé
 D               G
El sombrero del abuelito,
  Bm      Em
La camiseta del che
 G            A
Va entonandose un vinito

Bm               Em     G             A
Vamos para el fondo, vamos a ver el cielo,
Bm               Em    G           A
Vamos para el fondo, colectivo lleno

D               G
Las agujas del reloj
 D               G
Siempre que llovio paro
Bm        Em
carretera al entierro,
 G            A
Y en la vida vive un sueño

Bm               Em     G             A
Vamos para el fondo, vamos a ver el cielo,
Bm               Em    G           A
Vamos para el fondo, colectivo lleno

Intro: D  Bm A  X3

E:--12^14^12-10-10--14^19-17---------------|
B:---------------------------15-17-15------|
G:-----------------------------------------|
D:-----------------------------------------|
A:-----------------------------------------|
E:-----------------------------------------|

      G A X2

D           G
Mira donde estamos hoy
D             G
En esta ronda de alegría
Bm           Em
Ya se va asomando el sol
G           A
Despertar es despedida

Bm               Em     G             A
Vamos para el fondo, vamos a ver el cielo,
Bm               Em    G           A
Vamos para el fondo, colectivo lleno

Riff:

   Bm          Em       G        A
E:--5-3-2---5-3-2-------5-3-2----------5^7^5------|
B:--------3-------3--3--------3--5^7^5------------|
G:------------------------------------------------|
D:------------------------------------------------|
A:------------------------------------------------|
E:------------------------------------------------|

Bm    Em      G              A
Vamos, vamos,vamos hacia el sol ehe
Bm    Em      G              A
Vamos, vamos,vamos hacia el sol

       G   A      G  A
ehe heeeey no no no
       G   A      G  A          D
ehe heeeey no no no      no no no

            
            
Suggest correction
Creating personal tab
Creating personal tab
You can edit any tab online and save it as your Personal.

You can edit, replace or remove any tab part or add personal notes – all changes will be seen only by you.

Personal tabs can be accessed anytime from any device, even offline.
Learn more »
Give kudos to tab author, rate the tab!
1 2 3 4 5
comments
print report bad tab
guest
Wanna post a correction for this tab? Suggest correction