Oops, an error
Loading. Please wait.

Pino bass

31 views 1 this week
no commentswrite comment
1 2 3 4 5
3 more votes to show rating
add to favorites
×
Save as Personal and add changes to this tab that will be seen only by you. Learn more ›
×
You can save this tab as Personal to edit and correct it or add notes. All changes will be seen only by you. Learn more »
launch autoscroll
font size
0
reset
guitar tuner
edit
Autoscroll
slow
fast
+/-
esc
set tempo
stop
hola a todos!
esta es mi primer tab de LA VELA asi q espero q les guste!!

Intro: (EL BAJO ENTRA 00:04)
G|-/14-12/11-12/11--------|
D|-----------------14-12/-|
A|------------------------|
E|------------------------|

Verso: 00:10 "Hubo una vez..."  (x4)
G|------------------------------------------------|
D|------------------------------------------------|
A|---------------------------------------------23-|
E|-5--x5-3--x3-5--x5-3--x3-5--x5-3--x3-5--x5-3----|

Pre-Estribillo: 01:03
G|-------------------------------------|
D|-------------------------------------|
A|----457-54--------------457-54-------|
E|-5-7------75--5-3----5-7-----75--023-|

Estribillo: 01:16 "Pino vos sabes..."
G|--------------------------------------------------
D|--------------------------------------------------
A|-777777/222222------55555533333------555555555555-
E|--------------333333-----------333333-------------

 -------------------------------------------------------|
 -------------------------------------------------------|
 -777777/222222------55555533333------555555555/171717/-|
 --------------333333-----------333333------------------|

Post-estribillo:
01:44 "Pino no sueñes mas..."  01:55
G|-------------------|        G|--------|
D|-------------------|        D|--------|
A|-------------------|        A|-5555/7-|
E|-0-0-023---5-5-523-|(x3)    E|--------|

Intro:02:00  (EL BAJO ENTRA 02:08)
G|-/14-12/11-12/11----------------------------|
D|-----------------14-12-14----12/1112/11-----|
A|--------------------------12-----------1412-|
E|--------------------------------------------|

Verso: 02:13 "Se convecio..."  (x2)
Pre-Estribillo: 02:42

Estribillo: 02:56 "Pino vos sabes..."
G|--------------------------------------------------
D|--------------------------------------------------
A|-777777/222222------55555533333------555555555555-
E|--------------333333-----------333333-------------

 --------------------------------------------------
 --------------------------------------------------
 -777777/222222------55555533333------555555555555-
 --------------333333-----------333333-------------

 -------------------|
 -------------------|
 -555555555/171717/-|
 -------------------|

Post-estribillo: (x2)
03:27 "Pino no sueñes mas..." 03:38
G|-------------------|        G|----------|
D|-------------------|        D|----------|
A|-------------------|        A|-55555555-|
E|-0-0-023---5-5-523-|(x3)    E|----------|

03:55
G|-------------------|
D|-------------------|
A|-------------------|
E|-0-0-023---5-5-523-|

Repite esto hasta el final y termina en Em


espero q les haya gustado
cualquier consulta eldelveinty-26@

vamos EspEJISmoS!!!!

            
            
Suggest correction
Creating personal tab
Creating personal tab
You can edit any tab online and save it as your Personal.

You can edit, replace or remove any tab part or add personal notes – all changes will be seen only by you.

Personal tabs can be accessed anytime from any device, even offline.
Learn more »
Give kudos to tab author, rate the tab!
1 2 3 4 5
comments
print report bad tab
guest
Wanna post a correction for this tab? Suggest correction