Oops, an error
Loading. Please wait.

Hiereme tab

44 views 1 this week
no commentswrite comment
1 2 3 4 5
3 more votes to show rating
add to favorites
×
Save as Personal and add changes to this tab that will be seen only by you. Learn more ›
×
You can save this tab as Personal to edit and correct it or add notes. All changes will be seen only by you. Learn more »
launch autoscroll
font size
0
reset
how to read this tab
guitar tuner
edit
Autoscroll
slow
fast
+/-
esc
set tempo
stop
estos son los tonos originales de la rola
esta muy padre

     C  G
no morira
e-----------------------|
G------------3---3-3/5--|
B----------5---5--------|
D-----------------------|
A-----------------------|
E-----------------------|

     F                G        C
la fuerza de este embravecido mar

e-----------------------------------|
G-------------------------------5*6-|
B-----------------------------------|
D-----------------------------------|
A-----------------------------------|
E-----------------------------------|
      G
no morira

e------------------5---------|
G---------5*6--6-8---8-6-6/8-|
B----------------------------|
D----------------------------|
A----------------------------|
E----------------------------|
   F              G          C
como no muere el amor de verdad
e---------------8~~-------------8-8-8-8-8-|
G---------------------------(muchas veces-|
B-----------------------------------------|
D-----------------------------------------|
A-----------------------------------------|
E-----------------------------------------|


  C   G
llevame,
e--------------------------|
G--------------------------|
B--------------------------|
D------------5--5----------|
A--------3-5------5--3~----|
E--------------------------|
      F           G         C 
el camino es peligroso de verdad
        G
llevame amor, 
e------------------------------|
G------------------------------|
B------------------------------|
D----------------5--5----------|
A------------3-5------5--3~----|
E------------------------------|
      F             G           C    C/B
esta noche a salvo hemos de llegar

Am      G   F           G
    uuuhhh hemos de llegar
Am         G      F          G
    uuuuhh uuhhh juntos al final


C      G
pq sin ti
e--------------------------|
G--------------------------|
B--------------------------|
D------------5--5----------|
A--------3-5------5--3~----|
E--------------------------|
    F             G           C
los dias de esta perra vida gris
    G 
sin ti
e--------------------------|
G--------------------------|
B--------------------------|
D------------5--5----------|
A--------3-5------5--3~----|
E--------------------------|
     F         G                   C     C/B
son noches afiladas de hieren de muerte

Am       G      F           G
     uuuhhhh  hiereme de muerte negra
Am        G       F          G
     uuhh uuuhh hiereme de muerteeeeee


(solo de acordeon)
(arreglo para guitarra)

    C                   G
                             ¡hay hambre!
e|--8-7------8-7-------------7-8-7------|
G|------10-8-----10-8---8-10-------10-8-|
B|o-------------------------------------|
D|o-------------------------------------|
A|--------------------------------------|
E|--------------------------------------|

  F              G     
                        ¡poquito pan no´mas!
e-----5-7-5-----------7-8-7---------|
G-6-8-------8-6--8-10-------10-8----|
B----------------------------------o|
D----------------------------------o|(2 veces)
A-----------------------------------|
E-----------------------------------|


   C      G      
no se quiza
     F            G          C
la suerte ha volteado para aca
    G
no se
e-----------------------|
G-----------------------|
B-----------------------|
D---------5--5----------|
A-----3-5------5--3~----|
E-----------------------|

   F         G            C
sera q me acostumbre a perder
         G 
yo solo se
F           G                     C
  q el corazon no va  a desfallecer

 C      G
pq sin ti
e--------------------------|
G--------------------------|
B--------------------------|
D------------5--5----------|
A--------3-5------5--3~----|
E--------------------------|
    F             G           C
los dias de esta perra vida gris
    G 
sin ti
e--------------------------|
G--------------------------|
B--------------------------|
D------------5--5----------|
A--------3-5------5--3~----|
E--------------------------|
     F         G                   C     C/B
son noches afiladas de hieren de muerte

Am       G      F           G
     uuuhhhh  hiereme de muerte nena
Am        G       F          G
     uuhh uuuhh hiereme de muerteeeeee


Am        G
  hiereme, hiereme
  F          G
hiereme de muerte negra vida
Am        G
  hiereme, hiereme
 F            G      
hiereme de muerte prieta vida

Am        G
  hiereme, hiereme
 F           G
hiereme de muerte negra vida

Am        G
  hiereme, hiereme
 F            G
hiereme de muerte
Am          G
  de muerte, de muerte
F               G
  de muerte , hiereme de muerte
Am          G
  de muerte, de muerte
F               G
  de muerte , hiereme de muerte
Am          G
  de muerte, de muerte
F               G
  de muerte , hiereme de muerte

(fade out)


y ya saben si tienen dudas, comentarios, anecdotas,
chistes o lo q sea a mi mail jcd_007@

si van a usar esta tab para algun lugar avisenme
no sean ****gandallas***** y si buscan un 
guitarrista ando en busca de banda =)

            
            
Suggest correction
Creating personal tab
Creating personal tab
You can edit any tab online and save it as your Personal.

You can edit, replace or remove any tab part or add personal notes – all changes will be seen only by you.

Personal tabs can be accessed anytime from any device, even offline.
Learn more »
Give kudos to tab author, rate the tab!
1 2 3 4 5
comments
print report bad tab
guest
Wanna post a correction for this tab? Suggest correction