Oops, an error
Loading. Please wait.

Viene Clareando tab

74 views 1 this week
no commentswrite comment
1 2 3 4 5
3 more votes to show rating
add to favorites
×
Save as Personal and add changes to this tab that will be seen only by you. Learn more ›
×
You can save this tab as Personal to edit and correct it or add notes. All changes will be seen only by you. Learn more »
launch autoscroll
font size
0
reset
how to read this tab
guitar tuner
edit
Autoscroll
slow
fast
+/-
esc
set tempo
stop
 Bueno aki les traigo mi primera transcripcion..

Ritmo: Zamba 


SIm          FA#
Viditay ya me voy
                    SIm
de los pagos del Tucumán
SIm                LA   SOL#7   FA#7
y en el aconquija viene clareando
MIm             RE        FA#7  SIm
viditay nunca te he de olvidar

Viditay triste está
suspirando mi corazón
y con el pañuelo te voy diciendo
paloma vidita adiós adiós

Estribillo:

Viditay ya me voy
y se me hace que no hay volver
malaya mi suerte tanto quererte
vidita y tenerte que perder
malaya mi suerte tanto quererte
viene clareando mi padecer

Punteo: Recomiendo tocar en la posicion en ke la transcribo..
creo ke es la mejor forma.

  e¦¦-----7---7---7----7---7----------6---6---6-
  B¦¦-------7---7--------7---7----------5---5---
  G¦¦-------------------------------------------
  D¦¦-------------------------------------------
  A¦¦---------------------------2-3-4-----------
  E¦¦--7-------------7--------------------------


  ----6---6---------7---7---7--------------------
  ------5---5---------7---7----------------------
  -----------------------------------------------
  -------------4---------------------------------
  -----------------------------------------------
  -2-------------7--------------7----------------


  -----10---9---7---6----7----8---9--------------
  -----------------------------------------------
  -6p7----9---7---6-----7---8---9----------------
  -----------------------------------------------
  -----------------------------------------------
  -----------------------------------------------


  ---3------3---2-----2----0-----0------------------------
  -----5----------3----------2-----3----------------------
  -------4----------4----------3--------------------------
  ---2----------0-------------------------2-3-4-3-2-------
  ---------------------------------2----------------5-----
  -------------------------2------------------------------


Segunda:

Al clarear yo me iré
a mis pagos de Chasquivil
y hasta las espuelas te irán diciendo
vidita no te olvides de mí

Zambas sí penas no
eso quiere mi corazón
pero hasta la zamba se vuelve triste
vidita cuando se dice adiós

[[ Bueno espero ke la puedan sacar bien .. Saluud!! :P
.. X las dudas: agustin_kcho@
pero en el facebook porq al msn no lo toco :p ]]

            
            
Suggest correction
Creating personal tab
Creating personal tab
You can edit any tab online and save it as your Personal.

You can edit, replace or remove any tab part or add personal notes – all changes will be seen only by you.

Personal tabs can be accessed anytime from any device, even offline.
Learn more »
Give kudos to tab author, rate the tab!
1 2 3 4 5
comments
print report bad tab
guest
Wanna post a correction for this tab? Suggest correction