Oops, an error
Loading. Please wait.

Rot tab

version 2
version 2

Whole song

  • I like very much this song and i wanted to share t... Show more
205 views 1 this week
no commentswrite comment
1 2 3 4 5
3 more votes to show rating
add to favorites
×
Save as Personal and add changes to this tab that will be seen only by you. Learn more ›
×
You can save this tab as Personal to edit and correct it or add notes. All changes will be seen only by you. Learn more »
launch autoscroll
font size
0
reset
how to read this tab
guitar tuner
edit
Autoscroll
slow
fast
+/-
esc
set tempo
stop
About this tab version
I like very much this song and i wanted to share this tab after listening to it again and again and again ^^. Was this info helpful? Yes No
[Intro]
D|-------------------------------------------------|
A|-------------------------------------------------|
F|-------------------------------------------------|
C|---7-------8-----8/10----------------------------|
G|-5-------5---------------------------------------|
C|-------------------------------------------------|

I can't hold my head up in this dark room anymore
D|----------------------------------------------------------------------|
A|----------------------------------------------------------------------|
F|----------------------------------------------------------------------|
C|-7-7-7-7-7-7-7-7-7-7-7-7-7-7-7-7-7-8-8-8-8-8-8-8-8-8-8-8-8-8-8-8-8-8--|
G|-5-5-5-5-5-5-5-5-5-5-5-5-5-5-5-5-5-5-5-5-5-5-5-5-5-5-5-5-5-5-5-5-5-5--|
C|----------------------------------------------------------------------|

"I need a lightning bolt to raise me from this grave, here comes fresh"
D|---------------------------------------------------------------------|
A|---------------------------------------------------------------------|
F|---------------------------------------------------------------------|
C|--12-12-12-12-12-12-5-5-5-5-5-5-7-7-7-7-7-7-7-7-7-7-7-7-7-7-7-7-7----|
G|--10-10-10-10-10-10-3-3-3-3-3-3-5-5-5-5-5-5-5-5-5-5-5-5-5-5-5-5-5----|
C|---------------------------------------------------------------------|

"fire, fresh fire"
D|---------------------------------------------------------------------------|
A|---------------------------------------------------------------------------|
F|-7-7-7-7-7-7-7-7-7-7-7-7-7-7-7-7-7-7-7-7-7-7-7-7-7-7-7-7-7-7-7-7-----------|
C|-7-7-7-7-7-7-7-7-7-7-7-7-7-7-7-7-8-8-8-8-8-8-8-8-8-8-8-8-8-8-8-8-----------|
G|-5-5-5-5-5-5-5-5-5-5-5-5-5-5-5-5-5-5-5-5-5-5-5-5-5-5-5-5-5-5-5-5-----------|
C|---------------------------------------------------------------------------|

"fresh fire"
D|-----------------------------------------------------------------------------------------|
A|-----------------------------------------------------------------------------------------|
F|-12-12-12-12-12-12-12-17-17-17-17-17-17-17-19-19-19-19-19-19-19-19-19-19-19-19-19-19-19--|
C|-12-12-12-12-12-12-12-17-17-17-17-17-17-17-19-19-19-19-19-19-19-19-19-19-19-19-19-19-19--|
G|-10-10-10-10-10-10-10-15-15-15-15-15-15-15-17-17-17-17-17-17-17-17-17-17-17-17-17-17-17--|
C|-----------------------------------------------------------------------------------------|

[Verse]
"So infatuated by the darkness..." 
D|-------------------------------------------------------------------------------|
A|----------------------------------------6-------5\-----------------------------|
F|----------------------------------------5--5-5--5\-----------------------------|
C|-0-0-0-7--0-0-7--0-0-0-8--0-0-8\-----------5-5--------------7------7-------8-7-|
G|-0-0-0-5--0-0-5--0-0-0-5--0-0-5\----3-3----3-3------0-0-0-0-5--0-0-5-0-0-0-5-5-|
C|-0-0-0----0-0----0-0-0----0-0-------3-3-------------0-0-0-0----0-0---0-0-0-----|

"And still I want what's pure and want what's right..."
D|------------------------------------------------------------------------------------|
A|------------------------------------------6----------5\-----------------------------|
F|------------------------------------------5--5-5-5-5-5\-----------------------------|
C|-0-0-0-7--0-0-7--0-0-0-8--0-0-8\-------------5-5-5-5-------------7------7--------7\-|
G|-0-0-0-5--0-0-5--0-0-0-5--0-0-5\--3-3-3-3----3-3-5-5-----0-0-0-0-5-0-0-0-5-0-0-0-5\-|
C|-0-0-0----0-0----0-0-0----0-0-----3-3-3-3----------------0-0-0-0---0-0-0---0-0-0----|

[Chorus]
"Beneath her, glowing eyes, the call like fire..."
D|--------------------------------------------------------------------------------|
A|--------------------------------------------------------------------------------|
F|--------------------------3-3-3-3-3-3-3-3---------5-5-5-5-7-7-7-7-7-7-----------|
C|---12/0--0-0-0-0-0-0-0-0--3-3-3-3-3-3-3-3-3-3-3-3-5-5-5-5-7-7-7-7-7-7-----------|
G|-x-12/0--0-0-0-0-0-0-0-0--1-1-1-1-1-1-1-1-3-3-3-3-3-3-3-3-5-5-5-5-5-5-----6-5---|
C|-x-12/0--0-0-0-0-0-0-0-0------------------3-3-3-3---------------------3-5-------|

"Oh my God, you've won the coldest battle we've fought..."
D|-------------------------------------------------------------------------------------------|
A|-------------------------------------------------------------------------------------------|
F|------------------3-3-3-3-10/12-12/14-10-10-10-10---------5-5-5-5-x-7-x-5-x-7-x------------|
C|-0-12/0--0-0-0-0--3-3-3-3-------------------------3-3-3-3-5-5-5-5-x-7-x-5-x-7-x--------5-3-|
G|-0-12/0--0-0-0-0--1-1-1-1-8/10--10/12-8--8--8--8--3-3-3-3-3-3-3-3-x-5-x-3-x-5-x--3/5-5-----|
C|-0-12/0--0-0-0-0----------------------------------3-3-3-3----------------------------------|
                                                                     wha wha wha
"Rot..."
D|---------------------|
A|---15---15---15------|
F|---14---14---14------|
C|-0-12-0-12-0-12-0----|
G|-0----0----0----0----|
C|-0----0----0----0----|

[Verse]
"Mirror, mirror on the wall"       "will there be glory if I fall?"
D|-----------------------------------------------------------------------|
A|-----------------------------------------------------------------------|
F|---7---7---7---7---7---7---7---7---7---7---7---7---7---7---7---7---7---|
C|-7---7---7---7---7---7---7---7---7---8---8---8---8---8---8---8---8-----|
G|-----------------------------------------------------------------------|
C|-----------------------------------------------------------------------|

"Oh my God, save my soul"
D|------------------------------------------------------------------------------|
A|------------------------------------------------------------------------------|
F|----10---10---10---10---10---10---10---10---5---5---5---5---7---7---7---7---7-|
C|-10---10---10---10---10---10---10---10----5---5---5---5---7---7---7---7---7---|
G|------------------------------------------------------------------------------|
C|------------------------------------------------------------------------------|

"I need a faith that's solid as concrete""but the impact's broken both my knees"    
D|---------------------------------------------------------------------------|
A|---------------------------------------------------------------------------|
F|-7-7-7-7-7-7-7-7-7-7-7-7-7-7-7-7-7-7-7-7-7-7-7-7-7-7-7-7-7-7-7-7-----------|
C|-7-7-7-7-7-7-7-7-7-7-7-7-7-7-7-7-8-8-8-8-8-8-8-8-8-8-8-8-8-8-8-8-----------|
G|-5-5-5-5-5-5-5-5-5-5-5-5-5-5-5-5-5-5-5-5-5-5-5-5-5-5-5-5-5-5-5-5-----------|
C|---------------------------------------------------------------------------|
  wha 

"Oh my God, save my soul"
D|-----------------------------------------------------------------------------------------|
A|-----------------------------------------------------------------------------------------|
F|-12-12-12-12-12-12-12-17-17-17-17-17-17-17-19-19-19-19-19-19-19-19-19-19-19-19-19-19-19--|
C|-12-12-12-12-12-12-12-17-17-17-17-17-17-17-19-19-19-19-19-19-19-19-19-19-19-19-19-19-19--|
G|-10-10-10-10-10-10-10-15-15-15-15-15-15-15-17-17-17-17-17-17-17-17-17-17-17-17-17-17-17--|
C|-----------------------------------------------------------------------------------------|
  wha 


[Chorus]
"Beneath her, glowing eyes, the call like fire..."
D|--------------------------------------------------------------------------------|
A|--------------------------------------------------------------------------------|
F|--------------------------3-3-3-3-3-3-3-3---------5-5-5-5-7-7-7-7-7-7-----------|
C|---12/0--0-0-0-0-0-0-0-0--3-3-3-3-3-3-3-3-3-3-3-3-5-5-5-5-7-7-7-7-7-7-----------|
G|-x-12/0--0-0-0-0-0-0-0-0--1-1-1-1-1-1-1-1-3-3-3-3-3-3-3-3-5-5-5-5-5-5-----6-5---|
C|-x-12/0--0-0-0-0-0-0-0-0------------------3-3-3-3---------------------3-5-------|

"Oh my God, you've won the coldest battle we've fought..."
D|-------------------------------------------------------------------------------------------|
A|-------------------------------------------------------------------------------------------|
F|------------------3-3-3-3-10/12-12/14-10-10-10-10---------5-5-5-5-x-7-x-5-x-7-x------------|
C|-0-12/0--0-0-0-0--3-3-3-3-------------------------3-3-3-3-5-5-5-5-x-7-x-5-x-7-x--------5-3-|
G|-0-12/0--0-0-0-0--1-1-1-1-8/10--10/12-8--8--8--8--3-3-3-3-3-3-3-3-x-5-x-3-x-5-x--3/5-5-----|
C|-0-12/0--0-0-0-0----------------------------------3-3-3-3----------------------------------|
                                                                     wha wha wha
"Rot..."
D|---------------------|
A|---15---15---15------|
F|---14---14---14------|
C|-0-12-0-12-0-12-0----|
G|-0----0----0----0----|
C|-0----0----0----0----|

[Solo with wha]
D|----------------------------------------------------------------------------|
A|----------------------------------------------------------------------------|
F|----------------------------------------------------------------------------|
C|-------------------------3h5-5-3-------------------------3-5-5-5/7-7----------|
G|-5-5-5-5-3-3-3-3-5-5-5-5---------5-5-5-5-3-3-3-3-5-5-5-5--------------------|
C|----------------------------------------------------------------------------|


D|----------------------------------------------------------------------------------|
A|----------------------------------------------------------------------------------|
F|----------------------------------------------------------------------10h12-12-10-|
C|-------------------------3h5-5/12-12-12-12-12-10-10-10-10-12-12-12-12-------------|
G|-5-5-5-5-3-3-3-3-5-5-5-5----------------------------------------------------------|
C|----------------------------------------------------------------------------------|


D|-------------------------------------------------------------------------------------------------------|
A|-------------------------------------------------------------------------------------------------------|
F|-14-14-14-14-14-14-14-14-14-14-14-14-14-14-14-14-12-12-12-12-12-14-10-10-10-10-10-10-10-10-10-10-10-10-|
C|-------------------------------------------------------------------------------------------------------|
G|-------------------------------------------------------------------------------------------------------|
C|-------------------------------------------------------------------------------------------------------|

D|---------------------------------------------------------------------|
A|---------------------------------------------------------------------|
F|-12-12-12-12-12-12-9-9-9-9-9-9-9-9-9-9-/-17-17-17-17-17-17-17-19--\--|
C|---------------------------------------------------------------------|
G|---------------------------------------------------------------------|
C|---------------------------------------------------------------------|

"fresh fire..."
D|-------------20--------------------------------------------------0------------|
A|-18----------20----------15----------------6----------5----------3------------|
F|-17----------19----------14----------------5----------5----------2------------|
C|-15----------------------12----------------3----------5----------0------------|
G|-------------------------------------------3----------3----------0------------|
C|-------------------------------------------3---------------------0------------|
  Wha

"Oh my God, you've won the coldest battle we've fought..."
D|---------------------------------------------------------------------------------------|
A|---------------------------------------------------------------------------------------|
F|-----------------------10/12-12/14-10-10-10-10---------5-5-5-5-x-7-x-5-x-7-x-----------|
C|-X-5-5-/-8-8--0-0-0-0--------------------------3-3-3-3-5-5-5-5-x-7-x-5-x-7-x-------5-3-|
G|-X-5-5-/-8-8--0-0-0-0--8/10--10/12-8--8--8--8--3-3-3-3-3-3-3-3-x-5-x-3-x-5-x-3/5-5-----|
C|-X-5-5-/-8-8--0-0-0-0--------------------------3-3-3-3---------------------------------|
                                                                  wha wha wha

[Outro]
D|------------------|
A|------------------|
F|------------------|
C|--7---7---7-7-----|
G|--5---5---5-5-----|
C|--0---0---0-0-----|

I'm not sure about a few parts so your opinions will be appreciated

************************************

| /  Slide up
| \  Slide down
| x  Dead note
| h  Hammer-on

************************************

            
            
Suggest correction
Creating personal tab
Creating personal tab
You can edit any tab online and save it as your Personal.

You can edit, replace or remove any tab part or add personal notes – all changes will be seen only by you.

Personal tabs can be accessed anytime from any device, even offline.
Learn more »
Give kudos to tab author, rate the tab!
1 2 3 4 5
comments
print report bad tab
guest
Wanna post a correction for this tab? Suggest correction