Oops, an error
Loading. Please wait.

La Ballade Of Lady And Bird tab

1,919 views 3 this week
2 commentsread comments
1 2 3 4 5
x 3
add to favorites
×
Save as Personal and add changes to this tab that will be seen only by you. Learn more ›
×
You can save this tab as Personal to edit and correct it or add notes. All changes will be seen only by you. Learn more »
launch autoscroll
font size
0
reset
how to read this tab
guitar tuner
edit
Autoscroll
slow
fast
+/-
esc
set tempo
stop
Author
Difficulty
-----------------------------------------------------------------------------
                    La Ballade of Lady & Bird - Lady & Bird
-----------------------------------------------------------------------------
Tabbed by: The_BoneLESS
Email: elastomaster@gmail.com

I've been playing guitar for a few months now and while practicing The Ballad Of Casey
Deiss by Shawn Phillips, I somewhat heard La Ballade of Lady & Bird in the back of my
head. I worked on it and finally managed to play this great song. As I'd seen a few 
people asking for the tabs on YouTube and noticed their absence on this website, I thought I'd
write them down.

If you find any mistakes, please let me know.

Tuning: Standard


- Repeat 2x
e|-------------------|
B|-------0h1p0-------|
G|-----0-------0---0-|
D|---2-----------2---|
A|-3-----------------|
E|-------------------|

- Repeat 2x
e|-------------------|
B|-------0h1p0-------|
G|-----0-------0---0-|
D|---2-----------2---|
A|-------------------|
E|-0-----------------|

- Repeat 2x
e|-------------------|
B|-------0h1p0-------|
G|-----0-------0---0-|
D|---2-----------2---|
A|-3-----------------|
E|-------------------|

- Repeat 2x
e|-------------------|
B|-------0h1p0-------|
G|-----0-------0---0-|
D|---2-----------2---|
A|-------------------|
E|-0-----------------|

e|---------------------------------|
B|-------1-------1-------1---------|
G|-----2---2---2-------2-----------|
D|---2-------2-------2-------------|
A|-0---------------0-------2---3---|
E|---------------------------------|

e|---------------------------------|
B|-------0-------0-------0-------0-|
G|-----0---0---0-------0---0---0---|
D|---2-------2-------2-------2-----|
A|---------------------------------|
E|-0---------------0---------------|

e|---------------------------------|
B|-------1-------1-------1---------|
G|-----2---2---2-------2-----------|
D|---2-------2-------2-------------|
A|-0---------------0-------2---3---|
E|---------------------------------|

e|---------------------------------|
B|-------0-------0-----------------|
G|-----0---0---0-------------------|
D|---2-------2-----2-(let ring)----|
A|---------------------------------|
E|-0-------------------------------|

Let the last note ring and loop from the beginning.
To get the proper timing on the loop, count 4 beats from the moment you hit that last E
note on the D string (something like "1 and 2 and 3 and 4 and loop").

************************************

| /   slide up
| \   slide down
| h   hammer-on
| p   pull-off
| ~   vibrato
| +   harmonic
| x   Mute note
| b   Bend
| pb  Pre-bend
| br  Bend release
| pbr Pre-bend release
| brb Bend release bend

************************************

            
            
Suggest correction
Creating personal tab
Creating personal tab
You can edit any tab online and save it as your Personal.

You can edit, replace or remove any tab part or add personal notes – all changes will be seen only by you.

Personal tabs can be accessed anytime from any device, even offline.
Learn more »
Give kudos to tab author, rate the tab!
1 2 3 4 5
comments
print report bad tab
2 comments total.
0 reply
guest13 10 May 04, 2013 01:03 AM

e|---------------------------------|
B|-------1-------1-------1---------|
G|-----2---2---2-------2-----------|
D|---2-------2-------2-------------|
A|-0---------------0-------0h2-0h3-|
E|---------------------------------|

what about this?

0 reply
The_BoneLESS 84 Jun 15, 2013 08:15 AM

I suppose it sounds ok if you hammer on really quickly.

guest
You may want to rate the tab now too:
select rating
Wanna post a correction for this tab? Suggest correction