Oops, an error
Loading. Please wait.
We have Chord Pro version of Need You Now.
It's the closest thing you can get to the original song and it has interactive parts. Check out the tab »
×
6,675 views 21 this week
1 commentread comment
1 2 3 4 5
x 3
add to favorites
×
Save as Personal and add changes to this tab that will be seen only by you. Learn more ›
×
You can save this tab as Personal to edit and correct it or add notes. All changes will be seen only by you. Learn more »
launch autoscroll
font size
0
reset
guitar tuner
backing track
0:00
0:00
edit
Autoscroll
slow
fast
+/-
esc
set tempo
stop
Author
Difficulty
Need You Know
Lady Antebellum

Intro 

g-------------------------|---------------------------------|------------------------|
d-------------------------|------------------------------14-|------------------------|
a-------------------------|-----------------------14-h16----|-16-16-16-16-16-18-18-18|
e-17-17-17-17-17-17-17-17-|-17-17-17-17-17-17-17------------|------------------------|

g------------------------------|
d-------------18---------------|
a-19-19-19-19----16-h19--------|
e-----------------------19-p17-| x 3

Verse 1

Picture perfect ...             floor.
g---------------|---------------------|-----------------|---------------|
d---------------|---------------------|-----------------|---------------|
a---------------|----------------2-4--|-4-4-4-4-4-4-4-4-|-4-4-4-4-4-4---|
e-5-5-5-5-5-5-5-|-5-5-5-5-5-5-5-------|-----------------|---------------|

Reaching for ....                       anymore. 
g-----------------|-------------------------|----------------|
d-----------------|-----------------------2-|----------------|
a-----------------|-----------------2-h4----|-4-4-4-4-4-6-6-6|
e-5-5-5-5-5-5-5-5-|-5-5-5-5-5-5-5-----------|----------------|

g------------------------|
d----------6-------------|
a-7-7-7-7----4-h7--------|
e-------------------7-p5-|

And I wonder if...
g---------------|---------------------|-----------------|---------------|
d---------------|---------------------|-----------------|---------------|
a---------------|----------------2-4--|-4-4-4-4-4-4-4-4-|-4-4-4-4-4-4---|
e-5-5-5-5-5-5-5-|-5-5-5-5-5-5-5-------|-----------------|---------------|

For me it happens.....          time.
g---------------|-------------------------|
d---------------|-------------------------|
a---------------|-------------------------|
e-5-5-5-5-5-5-5-|-5-5-5-5-5-5-5---/17~----|



Chorus 1:

It's a quarter after one....
g----------------|----------------|----------------|-----------------|
d----------------|----------------|----------------|-----------------|
a----------------|----------------|----------------|-----------------|
e-0-0-0-0-0-0-0-0|-0-0-0-0-0-0-0-3|-4-4-4-4-4-4-4-4|-4-4-4-4-4-4-4-4-| x 2

But I don't know.....           I just need ....        
g----------------|--------------------------|
d----------------|-------------------7~-----|
a----------------|--------------------------|
e-5-5-5-5-5-5-5-5|-5-5-5-5-5-5-5---9--------|

g-----------------|-------------------------|----------------|
d-----------------|-----------------------2-|----------------|
a-----------------|-----------------2-h4----|-4-4-4-4-4-6-6-6|
e-5-5-5-5-5-5-5-5-|-5-5-5-5-5-5-5-----------|----------------|

g------------------------|
d----------6-------------|
a-7-7-7-7----4-h7--------|
e-------------------7-p5-|


Verse 2: Same as verse 1

 
Chorus 2:
It's a quarter after one....
g----------------|----------------|----------------|-----------------|
d----------------|----------------|----------------|-----------------|
a----------------|----------------|----------------|-----------------|
e-0-0-0-0-0-0-0-0|-0-0-0-0-0-0-0-3|-4-4-4-4-4-4-4-4|-4-4-4-4-4-4-4-4-| x 2

But I don't know.....           I just need ....        
g----------------|--------------------------|
d----------------|--------------------------|
a----------------|--------------------------|
e-5-5-5-5-5-5-5-5|-5-5-5-5-5-5-5-5-5-5-5----|

Bridge:

Now....
g-----------------|----------------------------------|
d-----------------|----------------------------------|
a-----------------|----------------------------7-9-7-|
e-9-7-00-0-0-0-0-0|-5-5-5-5-5-5-5-5-5-7-7-7-9--------|
                          Yes I rather...
g-----------------|----------------------------------|
d-----------------|----------------------------------|
a-----------------|----------------------------------|
e-9-7-00-0-0-0-0-0|-5-5-5-5-5-5-5-5-5-7-7-7-7-7-7-5--|


Chorus 3: 
It's a quarter after one....
g----------------|----------------|----------------|-----------------|
d----------------|----------------|----------------|-----------------|
a----------------|----------------|----------------|-----------------|
e-0-0-0-0-0-0-0-0|-0-0-0-0-0-0-0-3|-4-4-4-4-4-4-4-4|-4-4-4-4-4-4-4-4-| x 2

But I don't know.....           I just need ....        
g----------------|--------------------------|
d----------------|--------------------------|
a----------------|--------------------------|
e-5-5-5-5-7-7-7-7|-9-9-9-9-7-7-7-7-5-5-5-5--|

Now....
g---------------|---------------------|-----------------|---------------|
d---------------|---------------------|-----------------|---------------|
a---------------|----------------2-4--|-4-4-4-4-4-4-4-4-|-4-4-4-4-4-4---|
e-5-5-5-5-5-5-5-|-5-5-5-5-5-5-5-------|-----------------|---------------| x 4

Quiet for 4 bars

Outro (Muted)
g---------------------------|--------------------------|
d---------------------------|--------------------------|
a---------------------------|--------------------------|
e-12-12-121212--12-12-121212|16-16-161616-16-16-161616-|until finish

| /  slide up
| \  slide down
| h  hammer-on
| p  pull-off
| ~  vibrato
| +  harmonic
| x  Mute note

            
            
Suggest correction
Creating personal tab
Creating personal tab
You can edit any tab online and save it as your Personal.

You can edit, replace or remove any tab part or add personal notes – all changes will be seen only by you.

Personal tabs can be accessed anytime from any device, even offline.
Learn more »
Give kudos to tab author, rate the tab!
1 2 3 4 5
comments
print report bad tab
1 comment total.
0 reply
Tyco666 10 Aug 28, 2017 06:47 AM

Best of all the tabs for this song

guest
You may want to rate the tab now too:
select rating
Wanna post a correction for this tab? Suggest correction