Oops, an error
Loading. Please wait.

Just Dance bass

version 2
version 2

Whole song

Interactive

2,603 views 1 this week
no commentswrite comment
1 2 3 4 5
3 more votes to show rating
add to favorites
×
Save as Personal and add changes to this tab that will be seen only by you. Learn more ›
×
You can save this tab as Personal to edit and correct it or add notes. All changes will be seen only by you. Learn more »
launch autoscroll
font size
0
reset
guitar tuner
backing track
0:00
0:00
edit
Autoscroll
slow
fast
+/-
esc
set tempo
stop
-----------------------------------------------------------------------------
			     Just Dance - Lady Gaga
-----------------------------------------------------------------------------

Tabbed By : Bass-Or-Nothing
e-mail: rockersn@hotmail.com

Tuning: standard

It took me a while to figure parts of this out but i think it's mostly right
Also read notes at the end before commenting or correcting

INTRO/Verse

on the third bar the bass comes in for the intro

G|--------------------------------------------------------------------------|
D|--------------------------------------------------------------------------|
A|--------7--7------9-9-7---------7--7--------9-9-7-------------------------|
E|---9--9------7--7---------9--9--------7--7--------------------------------|
____________________________________________________________________________
it just repeats this for the verse leaving out the last note or two when changing to the bridge
----------------------------------------------------------------------------

Bridge

G|--------------------------------------------------------------------------|
D|-----7------6----------------------6-------2-------1----------------------|
A|-------------------7----------2/4-----2h4-----2h4-----4--4----------------|
E|-/5----4/5----4/5-----5--5------------------------------------------------|

G|--------------------------------------------------------------------------|
D|-----7------6----------------------6-------2-------2--1-------------------|
A|-------------------7----------2/4-----2h4-----2/4---------2---------------|
E|-/5----4/5----4/5-----5--5------------------------------------------------|

Chorus

G|--------------------------------------------------------------------------|
D|-------2--2-------4--4--2--------2--2-------4--4--2-----------------------|
A|--4--4------2--2------------4--4------2--2--------------------------------|
E|--------------------------------------------------------------------------|

____________________________________________________________________________
This just repeats for the chorus, however it is played an extra time or two i believe
the 3rd and 4th choruses
----------------------------------------------------------------------------

Breakdown 1... i suppose

G|--------------------------------------------------------------------------|
D|---2--2--2--2--2--2--2--2--2--2--2--2--2--2--2--2-------------------------|
A|--------------------------------------------------------------------------|
E|-0--0--0--0--0--0--0--0--0--0--0--0--0--0--0--0---------------------------|

or this sounds right also...

G|-9--9--9--9--9--9--9--9--9--9--9--9--9--9--9--9---------------------------|
D|--------------------------------------------------------------------------|
A|---7--7--7--7--7--7--7--7--7--7--7--7--7--7--7--7-------------------------|
E|--------------------------------------------------------------------------|


Breakdown 2

G|---6---9---11---13---6---4--------4---------------------------------------|
D|----------------------------6---------------------------------------------|
A|-4---7---9---11---4---2--------2------------------------------------------|
E|--------------------------4-----------------------------------------------|

____________________________________________________________________________
Repeat this 8 times. they are all octaves.
----------------------------------------------------------------------------

Then its just back into the verse. You can get the timing and structure yourselves i'm
by playin along to the song. Thats it really
Enjoy!
----------------------------------------------------------------------------
Notes:

1. I understand the verse and chorus are the same but i think that playing it lower for
verse gives a much deeper sound and suits it the song better. Changing to a higher
for the chorus just adds variety plus you're down that low on the A and D strings anyway 
the bridge.

2. I'm still unsure about breakdown one but it sounds like you play octaves of E. It's
kinda high and also sharp so maybe try the second one.

3. For the Breakdown 2 part, it's sounds better if you keep you're fingers on the fret
when moving up and playing the octaves and back down if you can as well. You can't really
onto another string... well no that i know of, so keep he sliding on the A string. The 
this is mentioned above is because i wanted to keep it as neat as possible.

            
            
Suggest correction
Creating personal tab
Creating personal tab
You can edit any tab online and save it as your Personal.

You can edit, replace or remove any tab part or add personal notes – all changes will be seen only by you.

Personal tabs can be accessed anytime from any device, even offline.
Learn more »
Give kudos to tab author, rate the tab!
1 2 3 4 5
comments
print report bad tab
guest
You may want to rate the tab now too:
select rating
Wanna post a correction for this tab? Suggest correction