Oops, an error
Loading. Please wait.
We have an official Paparazzi tab made by UG professional guitarists. Check out the tab »
×
61 views 3 this week
no commentswrite comment
1 2 3 4 5
2 more votes to show rating
add to favorites
×
Save as Personal and add changes to this tab that will be seen only by you. Learn more ›
×
You can save this tab as Personal to edit and correct it or add notes. All changes will be seen only by you. Learn more »
launch autoscroll
font size
0
reset
guitar tuner
edit
Autoscroll
slow
fast
+/-
esc
set tempo
stop
[Intro]                                                                   
G|--------------------------------|--------------------------------|
D|--------------------------------|--------------------------------|
A|--------------------------------|--------------------------------|
E|4-------------------------------|--------------------------------|
 
                                                                    
G|--------------------------------|--------------------------------|
D|--------------------------------|--------------------------------|
A|--------------------------------|--------------------------------|
E|--------------------------------|--------------------------------|
 
 [Verse 1]                                                                   
G|--------5---------------5-------|--------5---------------5-------|
D|--------------------------------|--------------------------------|
A|3-----------3-------3-------3---|3-----------3-------3-------3---|
E|--------------------------------|--------------------------------|
 
                                                                    
G|--------5---------------5-------|--------5---------------5-------|
D|--------------------------------|--------------------------------|
A|3-----------3-------3-------3---|3-----------3-------3-------3---|
E|--------------------------------|--------------------------------|
 
                                                                    
G|--------------------------------|--------------------------------|
D|--------6---------------6-------|--------6---------------6-------|
A|--------------------------------|--------------------------------|
E|4-----------4-------4-------4---|4-----------4-------4-------4---|
 
                                                                    
G|--------5---------------5-------|--------5---------------5-------|
D|--------------------------------|--------------------------------|
A|3-----------3-------3-------3---|3-----------3-------3-------3---|
E|--------------------------------|--------------------------------|
 
                                                                    
G|--------5---------------5-------|--------5---------------5-------|
D|--------------------------------|--------------------------------|
A|3-----------3-------3-------3---|3-----------3-------3-------3---|
E|--------------------------------|--------------------------------|
 
                                                                    
G|--------5---------------5-------|--------5---------------5-------|
D|--------------------------------|--------------------------------|
A|3-----------3-------3-------3---|3-----------3-------3-------3---|
E|--------------------------------|--------------------------------|
 
                                                                    
G|--------------------------------|--------------------------------|
D|--------6---------------6-------|--------6---------------6-------|
A|--------------------------------|--------------------------------|
E|4-----------4-------4-------4---|4-----------4-------4-------4---|
 
                                                                    
G|--------10--------------10------|--------------------------------|
D|--------------------------------|--------------------------------|
A|8-----------8-------8-------8---|8-------------------------------|
E|--------------------------------|--------------------------------|
 
 [Chorus]                                                                  
G|--------------------------------|------------8-----------8-------|
D|------------6-----------6-------|--------------------------------|
A|--------------------------------|6-------------------6-----------|
E|4-------------------4-----------|--------------------------------|
 
                                                                    
G|--------------------------------|--------------------------------|
D|------------3-----------3-------|------------3-----------3-------|
A|--------------------------------|4-------------------4-----------|
E|1-------------------1-----------|--------------------------------|
 
                                                                    
G|--------------------------------|------------8-----------8-------|
D|------------6-----------6-------|--------------------------------|
A|--------------------------------|6-------------------6-----------|
E|4-------------------4-----------|--------------------------------|
 
                                                                    
G|--------------------------------|--------------------------------|
D|------------3-----------3-------|------------3-----------3-------|
A|--------------------------------|4-------------------4-----------|
E|1-------------------1-----------|--------------------------------|
 
                                                                    
G|--------------------------------|------------8-----------8-------|
D|------------6-------------6-----|--------------------------------|
A|--------------------------------|6-------------------6-----------|
E|4-------------------4-----------|--------------------------------|
 
                                                                    
G|--------------------------------|--------------------------------|
D|------------3-----------3-------|--------------------------------|
A|--------------------------------|4-------------------------------|
E|1-------------------1-----------|--------------------------------|
 
                                                                    
G|--------------------------------|------------8-----------8-------|
D|------------6-----------6-------|--------------------------------|
A|--------------------------------|6-------------------6-----------|
E|4-------------------4-----------|--------------------------------|
 
                                                                    
G|--------------------------------|--------------------------------|
D|------------3-----------3-------|------------3-----------3-------|
A|--------------------------------|4-------------------4-----------|
E|1-------------------1-----------|--------------------------------|
 
 [Verse]                                                                   
G|--------5---------------5-------|--------5---------------5-------|
D|--------------------------------|--------------------------------|
A|3-----------3-------3-------3---|3-----------3-------3-------3---|
E|--------------------------------|--------------------------------|
 
                                                                    
G|--------5---------------5-------|--------5---------------5-5-5-5-|
D|--------------------------------|--------------------------------|
A|3-----------3-------3-------3---|3-----------3-------3-----------|
E|--------------------------------|--------------------------------|
 
                                                                    
G|--------5---------------5-------|--------5---------------5-------|
D|--------------------------------|--------------------------------|
A|3-----------3-------3-----------|3-----------3-------3-----------|
E|--------------------------------|--------------------------------|
 
                                                                    
G|--------5---------------5-------|--------5---------------5-------|
D|--------------------------------|--------------------------------|
A|3-----------3-------3-----------|3-----------3-------3-------3---|
E|--------------------------------|--------------------------------|
 
                                                                    
G|--------------------------------|--------------------------------|
D|--------6---------------6-------|--------6---------------6-------|
A|--------------------------------|--------------------------------|
E|4-----------4-------4-----------|4-----------4-------4-----------|
 
                                                                    
G|--------5---------------5-------|--------5-----------------------|
D|--------------------------------|--------------------------------|
A|3-----------3-------3-----------|3-----------3-------3-----------|
E|--------------------------------|--------------------------------|
 
                                                                    
G|--------5---------------5-------|--------5---------------5-------|
D|--------------------------------|--------------------------------|
A|3-----------3-------3-----------|3-----------3-------3-----------|
E|--------------------------------|--------------------------------|
 
                                                                    
G|--------5---------------5-------|--------5---------------5-------|
D|--------------------------------|--------------------------------|
A|3-----------3-------3-----------|3-----------3-------3-------3---|
E|--------------------------------|--------------------------------|
 
                                  [Chorus]                                 
G|--------------------------------|--------------------------------|
D|--------6---------------6-------|--------6---------------6-------|
A|--------------------------------|--------------------------------|
E|4-----------4-------4-----------|4-----------4-------4-----------|
 
                                                                    
G|--------10--------------10------|--------------------------------|
D|--------------------------------|--------5-------6---------------|
A|8-----------8-------8-------8---|8-------------------------------|
E|--------------------------------|--------------------------------|
 
                                                                    
G|--------------------------------|------------8-----------8-------|
D|------------6-----------6-------|--------------------------------|
A|--------------------------------|6-------------------6-----------|
E|4-------------------4-----------|--------------------------------|
 
                                                                    
G|--------------------------------|--------------------------------|
D|------------3-----------3-------|------------3-----------3-------|
A|--------------------------------|4-------------------4-----------|
E|1-------------------1-----------|--------------------------------|
 
                                                                    
G|--------------------------------|------------8-----------8-------|
D|------------6-----------6-------|--------------------------------|
A|--------------------------------|6-------------------6-----------|
E|4-------------------4-----------|--------------------------------|
 
                                                                    
G|--------------------------------|--------------------------------|
D|------------3-----------3-------|------------3-----------3-------|
A|--------------------------------|4-------------------4-----------|
E|1-------------------1-----------|--------------------------------|
 
                                                                    
G|--------------------------------|------------8-----------8-------|
D|------------6-----------6-------|--------------------------------|
A|--------------------------------|6-------------------6-----------|
E|4-------------------4-----------|--------------------------------|
 
                                                                    
G|--------------------------------|--------------------------------|
D|------------3-----------3-------|--------------------------------|
A|--------------------------------|4-------------------------------|
E|1-------------------1-----------|--------------------------------|
 
                                                                    
G|--------------------------------|------------8-----------8-------|
D|------------6-----------6-------|--------------------------------|
A|--------------------------------|6-------------------6-----------|
E|4-------------------4-----------|--------------------------------|
 
                                                                    
G|--------------------------------|--------------------------------|
D|------------3-----------3-------|------------3-----------3-------|
A|--------------------------------|4-------------------4-----------|
E|1-------------------1-----------|--------------------------------|
 
                                                                    
G|0-------------------------------|--------------------------------|
D|--------------------------------|--------------------------------|
A|------------3-------------------|--------------------------------|
E|--------------------------------|--------------------------------|
 
                                                                    
G|0-------------------------------|--------------------------------|
D|--------------------------------|--------------------------------|
A|------------3-------------------|--------------------------------|
E|--------------------------------|--------------------------------|
 
                                                                    
G|--------0-----------------------|--------------------------------|
D|--------------------------------|--------------------------------|
A|3---------------3---------------|--------------------------------|
E|--------------------------------|--------------------------------|
 
                                                                    
G|--------------------------------|--------------------------------|
D|--------------------------------|--------------------------------|
A|--------------------------------|--------------------------------|
E|1-------------------------------|1-------1-------1---------------|
 
 [Chorus]                                                                   
G|--------------------------------|--------------------------------|
D|--------------------------------|1---1---1---1---1---1---1---1---|
A|--------------------------------|--------------------------------|
E|4---4---4---4---4---4---4---4---|--------------------------------|
 
                                                                    
G|--------------------------------|--------------------------------|
D|--------------------------------|--------------------------------|
A|--------------------------------|4---4---4---4---4---4---4---4---|
E|1---1---1---1---1---1---1---1---|--------------------------------|
 
                                                                    
G|--------------------------------|--------------------------------|
D|--------------------------------|1---1---1---1---1---1---1---1---|
A|--------------------------------|--------------------------------|
E|4---4---4---4---4---4---4---4---|--------------------------------|
 
                                                                    
G|--------------------------------|--------------------------------|
D|--------------------------------|--------------------------------|
A|--------------------------------|4---4---4---4---4---4---4---4---|
E|1---1---1---1---1---1---1---1---|--------------------------------|
 
 [Outro]                                                                   
G|--------------------------------|------------8-----------8-------|
D|------------6-----------6-------|--------------------------------|
A|--------------------------------|6-------------------6-----------|
E|4-------------------4-----------|--------------------------------|
 
                                                                    
G|--------------------------------|--------------------------------|
D|------------3-----------3-------|--------------------------------|
A|--------------------------------|4-------------------------------|
E|1-------------------1-----------|--------------------------------|
 
                                                                    
G|--------------------------------|------------8-----------8-------|
D|------------6-----------6-------|--------------------------------|
A|--------------------------------|6-------------------6-----------|
E|4-------------------4-----------|--------------------------------|
 
                                                                    
G|--------------------------------|--------------------------------|
D|------------3-----------3-------|------------3-----------3-------|
A|--------------------------------|4-------------------4-----------|
E|1-------------------1-----------|--------------------------------|
 

            
            
Suggest correction
Creating personal tab
Creating personal tab
You can edit any tab online and save it as your Personal.

You can edit, replace or remove any tab part or add personal notes – all changes will be seen only by you.

Personal tabs can be accessed anytime from any device, even offline.
Learn more »
Give kudos to tab author, rate the tab!
1 2 3 4 5
comments
print report bad tab
guest
You may want to rate the tab now too:
select rating
Wanna post a correction for this tab? Suggest correction