Oops, an error
Loading. Please wait.
We have an official Poker Face tab made by UG professional guitarists. Check out the tab »
×
386,914 views 75 this week
11 commentsread comments
1 2 3 4 5
x 8
add to favorites
×
Save as Personal and add changes to this tab that will be seen only by you. Learn more ›
×
You can save this tab as Personal to edit and correct it or add notes. All changes will be seen only by you. Learn more »
launch autoscroll
font size
0
reset
how to read this tab
guitar tuner
edit
Autoscroll
slow
fast
+/-
esc
set tempo
stop
Author
-------------------------------------------------------------------------------
                             Poker Face – Lady Gaga
-------------------------------------------------------------------------------
Tabbed by: dapinayroxtar31

Tuning: standard

[Intro/Verse] (x7) “I wanna hold em...”
e|-------------------------------------------------|-------------------------|
B|-------------------------------------------------|-------------------------|
G|-------------------------------------------------|-------------------------|
D|---6-6-------------6-6-----4-4-------------------|-------------------------|
A|-----------6-6---------7-7-----------------------|-------------------------|
E|-------4-4-----4-4-------------2-2---------------|-------------------------|


[Pre-Chorus] “Luck and intuition...”
e|----------------|----------------|----------------|----------------|-------|
B|----------------|----------------|----------------|----------------|-------|
G|----------------|---8------------|----------------|---8------------|-------|
D|---6------------|---8------------|---6------------|---8------------|-------|
A|---6------------|---6------------|---6------------|---6------------|-------|
E|---4------------|----------------|---4------------|----------------|-------|
  (x16)             (x16)             (x16)            (x16)


e|----------------|----------------|-----------------------------------------|
B|----------------|----------------|-----------------------------------------|
G|----------------|---8------------|-----------------------------------------|
D|---6------------|---8------------|-----------------------------------------|
A|---6------------|---6------------|-----------------------------------------|
E|---4------------|----------------|-----------------------------------------|
   (x16)            (x9)

[Chorus]
e|----------------|----------------|----------------|------------------------|
B|----------------|----------------|----------------|------------------------|
G|----------------|---9------------|----------------|------------------------|
D|---6------------|---9------------|---9------------|---8--------------------|
A|---6------------|---7------------|---9------------|---8--------------------|
E|---4------------|----------------|---7------------|---6--------------------|
   (x8)              (x8)             (x8)            (x8)

e|----------------|----------------|----------------|------------------------|
B|----------------|----------------|----------------|------------------------|
G|----------------|---9------------|----------------|------------------------|
D|---6------------|---9------------|---9------------|---8--------------------|
A|---6------------|---7------------|---9------------|---8--------------------|
E|---4------------|----------------|---7------------|---6--------------------|
   (x8)              (x8)             (x8)             (x8)

Intro/Verse (x4)

[Pre-Chorus]

[Chorus]

[Intro/Verse] (x2)

[Bridge] (x6)
e|-------------------------|-------------------------------------------------|
B|-------------------------|-------------------------------------------------|
G|-------------------------|-------------------------------------------------|
D|-------------------------|-------------------------------------------------|
A|-----6\5-----6-5-6-5-----|-------------------------------------------------|
E|---4-----7-4---------2---|-------------------------------------------------|

Chorus (till the end)


************************************

| \  Slide down

************************************

            
            
Suggest correction
Creating personal tab
Creating personal tab
You can edit any tab online and save it as your Personal.

You can edit, replace or remove any tab part or add personal notes – all changes will be seen only by you.

Personal tabs can be accessed anytime from any device, even offline.
Learn more »
comments
print report bad tab
11 comments total. Showing first comments.
0 reply
bing_182 82 Jan 20, 2009 07:12 AM

Top job mate

0 reply
grey's anatomy 10 Feb 13, 2009 02:40 PM

nice job
two things though i think in the intro instead of A:7-7 its A:7 E:7
and in the chorus instead of 8 as the 4th chord its 4
8 4
6 2
but great job

+3 reply
fallenleaf 31 Mar 03, 2009 05:13 PM

add this for a second guitar on the intro

|-------------------------------------------------------------------------
|-------------------------------------------------------------------------
|-4-4-4-4-4-4-4-4-4-4-4-4-6-4-6-4-------8-8-8-8-8-8-8-8-8-8-8-8-9-8-9-8---
|-------------------------------------------------------------------------
|-------------------------------------------------------------------------
|-------------------------------------------------------------------------

guest
You may want to rate the tab now too:
select rating
Wanna post a correction for this tab? Suggest correction