Oops, an error
Loading. Please wait.

Milk Duds tab

2,286 views 6 this week
no commentswrite comment
1 2 3 4 5
x 4
add to favorites
×
Save as Personal and add changes to this tab that will be seen only by you. Learn more ›
×
You can save this tab as Personal to edit and correct it or add notes. All changes will be seen only by you. Learn more »
launch autoscroll
font size
0
reset
how to read this tab
guitar tuner
edit
Autoscroll
slow
fast
+/-
esc
set tempo
stop
Author
Standard tuning

Tabbed based on this performance:
http://www.youtube.com/watch?v=7NioFDvb0t0

"I am an old song..."
e|---------------------------------------------------------------------------|
B|--10-10-101010-10-10-101010-10-10-101010-10-10-101010----------------------|
G|--0--0--0-0-0--0--0--0-0-0--0--0--0-0-0--0--0--0-0-0-----------------------|
D|--0--0--0-0-0--0--0--0-0-0--0--0--0-0-0--0--0--0-0-0-----------------------|
A|--9--9--9-9-9--9--9--9-9-9--9--9--9-9-9--9--9--9-9-9-----------------------|
E|--10-10-101010-10-10-101010-10-10-101010-10-10-101010----------------------|

e|---------------------------------------------------------------------------|
B|--10-10-101010-10-10-101010-10-10-101010-10-10-101010----------------------|
G|--9--9--9-9-9--9--9--9-9-9--9--9--9-9-9--9--9--9-9-9-----------------------|
D|--0--0--0-0-0--0--0--0-0-0--0--0--0-0-0--0--0--0-0-0-----------------------|
A|--x--x--x-x-x--x--x--x-x-x--x--x--x-x-x--x--x--x-x-x-----------------------|
E|--9--9--9-9-9--9--9--9-9-9--9--9--9-9-9--9--9--9-9-9-----------------------|

e|---------------------------------------------------------------------------|
B|--8--8--8-8-8--8--8--8-8-8--8--8--8-8-8--8--8--8-8-8-----------------------|
G|--7--7--7-7-7--7--7--7-7-7--7--7--7-7-7--7--7--7-7-7-----------------------|
D|--0--0--0-0-0--0--0--0-0-0--0--0--0-0-0--0--0--0-0-0-----------------------|
A|--x--x--x-x-x--x--x--x-x-x--x--x--x-x-x--x--x--x-x-x-----------------------|
E|--7--7--7-7-7--7--7--7-7-7--7--7--7-7-7--7--7--7-7-7-----------------------|

e|---------------------------------------------------------------------------|
B|--10-10-101010-10-10-101010-10-10-101010-10-10-101010----------------------|
G|--9--9--9-9-9--9--9--9-9-9--9--9--9-9-9--9--9--9-9-9-----------------------|
D|--0--0--0-0-0--0--0--0-0-0--0--0--0-0-0--0--0--0-0-0-----------------------|
A|--x--x--x-x-x--x--x--x-x-x--x--x--x-x-x--x--x--x-x-x-----------------------|
E|--9--9--9-9-9--9--9--9-9-9--9--9--9-9-9--9--9--9-9-9-----------------------|

Interlude:
e|---------------------------------------------------------------------------|
B|--10-10-101010-10-10-101010-10-10-101010-10-10-101010----------------------|
G|--0--0--0-0-0--0--0--0-0-0--0--0--0-0-0--0--0--0-0-0-----------------------|
D|--0--0--0-0-0--0--0--0-0-0--0--0--0-0-0--0--0--0-0-0-----------------------|
A|--9--9--9-9-9--9--9--9-9-9--9--9--9-9-9--9--9--9-9-9-----------------------|
E|--10-10-101010-10-10-101010-10-10-101010-10-10-101010----------------------|

e|---------------------------------------------------------------------------|
B|--10-10-101010-10-10-101010-8--8--8-8-8-8/10-1010-101010-------------------|
G|--9--9--9-9-9--9--9--9-9-9--7--7--7-7-7-7/9--9-9--9-9-9--------------------|
D|--0--0--0-0-0--0--0--0-0-0--0--0--0-0-0-0-0--0-0--0-0-0--------------------|
A|--x--x--x-x-x--x--x--x-x-x--x--x--x-x-x-x-x--x-x--x-x-x--------------------|
E|--9--9--9-9-9--9--9--9-9-9--7--7--7-7-7-7/9--9-9--9-9-9--------------------|

e|---------------------------------------------------------------------------|
B|--10-10-101010-10-10-101010-10-10-101010-10-10-101010----------------------|
G|--0--0--0-0-0--0--0--0-0-0--0--0--0-0-0--0--0--0-0-0-----------------------|
D|--0--0--0-0-0--0--0--0-0-0--0--0--0-0-0--0--0--0-0-0-----------------------|
A|--9--9--9-9-9--9--9--9-9-9--9--9--9-9-9--9--9--9-9-9-----------------------|
E|--10-10-101010-10-10-101010-10-10-101010-10-10-101010----------------------|

e|---------------------------------------------------------------------------|
B|--10-10-101010-10-10-101010-8--8--8-8-8--7--7--7-7-7-----------------------|
G|--9--9--9-9-9--9--9--9-9-9--7--7--7-7-7--6--6--6-6-6-----------------------|  
D|--0--0--0-0-0--0--0--0-0-0--0--0--0-0-0--0--0--0-0-0-----------------------|
A|--x--x--x-x-x--x--x--x-x-x--x--x--x-x-x--x--x--x-x-x-----------------------|
E|--9--9--9-9-9--9--9--9-9-9--7--7--7-7-7--5--5--5-5-5-----------------------|

"We fell asleep..."
e|---------------------------------------------------------------------------
B|--5--5--5-5-5--5--5--5-5-5--7--7--7-7-7--7--7--7-7-7-----------------------
G|--4--4--4-4-4--4--4--4-4-4--6--6--6-6-6--6--6--6-6-6-----------------------
D|--0--0--0-0-0--0--0--0-0-0--0--0--0-0-0--0--0--0-0-0-----------------------
A|--x--x--x-x-x--x--x--x-x-x--x--x--x-x-x--x--x--x-x-x-----------------------
E|--3--3--3-3-3--3--3--3-3-3--5--5--5-5-5--5--5--5-5-5-----------------------

  ---------------------------------------------------------------------------|
  --5--5--5-5-5--5--5--5-5-5--7/----10-----7/----10--------------------------|
  --4--4--4-4-4--4--4--4-4-4--6/----9------6/----9---------------------------|  x2
  --0--0--0-0-0--0--0--0-0-0--0-----0------0-----0---------------------------|  (both lines)
  --x--x--x-x-x--x--x--x-x-x--x-----x------x-----x---------------------------|
  --3--3--3-3-3--3--3--3-3-3--5/----9------5/----9---------------------------|

Interlude:
e|---------------------------------------------------------------------------|
B|--10-10-101010-10-10-101010-10-10-101010-10-10-101010----------------------|
G|--0--0--0-0-0--0--0--0-0-0--0--0--0-0-0--0--0--0-0-0-----------------------|
D|--0--0--0-0-0--0--0--0-0-0--0--0--0-0-0--0--0--0-0-0-----------------------|
A|--9--9--9-9-9--9--9--9-9-9--9--9--9-9-9--9--9--9-9-9-----------------------|
E|--10-10-101010-10-10-101010-10-10-101010-10-10-101010----------------------|

e|---------------------------------------------------------------------------|
B|--10-10-101010-10-10-101010-8--8--8-8-8-8/10-1010-101010-------------------|
G|--9--9--9-9-9--9--9--9-9-9--7--7--7-7-7-7/9--9-9--9-9-9--------------------|
D|--0--0--0-0-0--0--0--0-0-0--0--0--0-0-0-0-0--0-0--0-0-0--------------------|
A|--x--x--x-x-x--x--x--x-x-x--x--x--x-x-x-x-x--x-x--x-x-x--------------------|
E|--9--9--9-9-9--9--9--9-9-9--7--7--7-7-7-7/9--9-9--9-9-9--------------------|

e|---------------------------------------------------------------------------|
B|--10-10-101010-10-10-101010-10-10-101010-10-10-101010----------------------|
G|--0--0--0-0-0--0--0--0-0-0--0--0--0-0-0--0--0--0-0-0-----------------------|
D|--0--0--0-0-0--0--0--0-0-0--0--0--0-0-0--0--0--0-0-0-----------------------|
A|--9--9--9-9-9--9--9--9-9-9--9--9--9-9-9--9--9--9-9-9-----------------------|
E|--10-10-101010-10-10-101010-10-10-101010-10-10-101010----------------------|

e|---------------------------------------------------------------------------|
B|--10-10-101010-10-10-101010-8--8--8-8-8--7--7--7-7-7-----------------------|
G|--9--9--9-9-9--9--9--9-9-9--7--7--7-7-7--6--6--6-6-6-----------------------|  
D|--0--0--0-0-0--0--0--0-0-0--0--0--0-0-0--0--0--0-0-0-----------------------|
A|--x--x--x-x-x--x--x--x-x-x--x--x--x-x-x--x--x--x-x-x-----------------------|
E|--9--9--9-9-9--9--9--9-9-9--7--7--7-7-7--5--5--5-5-5-----------------------|

"You can try to relax..."
e|---------------------------------------------------------------------------|
B|--5--5--5-5-5--5--5--5-5-5--7--7--7-7-7--7--7--7-7-7-----------------------|
G|--4--4--4-4-4--4--4--4-4-4--6--6--6-6-6--6--6--6-6-6-----------------------|  x11
D|--0--0--0-0-0--0--0--0-0-0--0--0--0-0-0--0--0--0-0-0-----------------------|
A|--x--x--x-x-x--x--x--x-x-x--x--x--x-x-x--x--x--x-x-x-----------------------|
E|--3--3--3-3-3--3--3--3-3-3--5--5--5-5-5--5--5--5-5-5-----------------------|

"My eyes are the bee..."
e|---------------------------------------------------------------------------|
B|--5~-----------------------------------------------------------------------|
G|--4~-----------------------------------------------------------------------|
D|--0~-----------------------------------------------------------------------|
A|--x~-----------------------------------------------------------------------|
E|--3~-------------------3/---5~------5/---9~--------------------------------|

Interlude:
e|---------------------------------------------------------------------------|
B|--10-10-101010-10-10-101010-10-10-101010-10-10-101010----------------------|
G|--0--0--0-0-0--0--0--0-0-0--0--0--0-0-0--0--0--0-0-0-----------------------|
D|--0--0--0-0-0--0--0--0-0-0--0--0--0-0-0--0--0--0-0-0-----------------------|
A|--9--9--9-9-9--9--9--9-9-9--9--9--9-9-9--9--9--9-9-9-----------------------|
E|--10-10-101010-10-10-101010-10-10-101010-10-10-101010----------------------|

e|---------------------------------------------------------------------------|
B|--10-10-101010-10-10-101010-8--8--8-8-8--7--7--7-7-7-----------------------|
G|--9--9--9-9-9--9--9--9-9-9--7--7--7-7-7--6--6--6-6-6-----------------------|  
D|--0--0--0-0-0--0--0--0-0-0--0--0--0-0-0--0--0--0-0-0-----------------------|
A|--x--x--x-x-x--x--x--x-x-x--x--x--x-x-x--x--x--x-x-x-----------------------|
E|--9--9--9-9-9--9--9--9-9-9--7--7--7-7-7--5--5--5-5-5-----------------------|

"We fell asleep..."
e|---------------------------------------------------------------------------|
B|--5--5--5-5-5--5--5--5-5-5--7--7--7-7-7--7--7--7-7-7-----------------------|
G|--4--4--4-4-4--4--4--4-4-4--6--6--6-6-6--6--6--6-6-6-----------------------|
D|--0--0--0-0-0--0--0--0-0-0--0--0--0-0-0--0--0--0-0-0-----------------------|
A|--x--x--x-x-x--x--x--x-x-x--x--x--x-x-x--x--x--x-x-x-----------------------|
E|--3--3--3-3-3--3--3--3-3-3--5--5--5-5-5--5--5--5-5-5-----------------------|

e|---------------------------------------------------------------------------|
B|--5--5--5-5-5--5--5--5-5-5--7/----10-----7/----10--------------------------|
G|--4--4--4-4-4--4--4--4-4-4--6/----9------6/----9---------------------------|
D|--0--0--0-0-0--0--0--0-0-0--0-----0------0-----0---------------------------|
A|--x--x--x-x-x--x--x--x-x-x--x-----x------x-----x---------------------------|
E|--3--3--3-3-3--3--3--3-3-3--5/----9------5/----9---------------------------|

e|---------------------------------------------------------------------------|
B|--5--5--5-5-5--5--5--5-5-5--7--7--7-7-7--7--7--7-7-7-----------------------|
G|--4--4--4-4-4--4--4--4-4-4--6--6--6-6-6--6--6--6-6-6-----------------------|  x3
D|--0--0--0-0-0--0--0--0-0-0--0--0--0-0-0--0--0--0-0-0-----------------------|
A|--x--x--x-x-x--x--x--x-x-x--x--x--x-x-x--x--x--x-x-x-----------------------|
E|--3--3--3-3-3--3--3--3-3-3--5--5--5-5-5--5--5--5-5-5-----------------------|

e|---------------------------------------------------------------------------|
B|--5--5--5-5-5--5--5--5-5-5/10-10~------------------------------------------|
G|--4--4--4-4-4--4--4--4-4-4/9--9~-------------------------------------------|
D|--0--0--0-0-0--0--0--0-0-0/0--0~-------------------------------------------|
A|--x--x--x-x-x--x--x--x-x-x/x--x~-------------------------------------------|
E|--3--3--3-3-3--3--3--3-3-3/9--9~-------------------------------------------|

"Now I'm an old song..."
e|---------------------------------------------------------------------------|
B|--10-10-101010-10-10-101010-10-10-101010-10-10-101010----------------------|
G|--0--0--0-0-0--0--0--0-0-0--0--0--0-0-0--0--0--0-0-0-----------------------|
D|--0--0--0-0-0--0--0--0-0-0--0--0--0-0-0--0--0--0-0-0-----------------------|
A|--9--9--9-9-9--9--9--9-9-9--9--9--9-9-9--9--9--9-9-9-----------------------|
E|--10-10-101010-10-10-101010-10-10-101010-10-10-101010----------------------|

e|---------------------------------------------------------------------------|
B|--10-10-101010-10-10-101010-10-10-101010-10-10-101010----------------------|
G|--9--9--9-9-9--9--9--9-9-9--9--9--9-9-9--9--9--9-9-9-----------------------|
D|--0--0--0-0-0--0--0--0-0-0--0--0--0-0-0--0--0--0-0-0-----------------------|
A|--x--x--x-x-x--x--x--x-x-x--x--x--x-x-x--x--x--x-x-x-----------------------|
E|--9--9--9-9-9--9--9--9-9-9--9--9--9-9-9--9--9--9-9-9-----------------------|

e|---------------------------------------------------------------------------|
B|--8--8--8-8-8--8--8--8-8-8--8--8--8-8-8--8--8--8-8-8-----------------------|
G|--7--7--7-7-7--7--7--7-7-7--7--7--7-7-7--7--7--7-7-7-----------------------|
D|--0--0--0-0-0--0--0--0-0-0--0--0--0-0-0--0--0--0-0-0-----------------------|
A|--x--x--x-x-x--x--x--x-x-x--x--x--x-x-x--x--x--x-x-x-----------------------|
E|--7--7--7-7-7--7--7--7-7-7--7--7--7-7-7--7--7--7-7-7-----------------------|

e|---------------------------------------------------------------------------|
B|--10-10-101010-10-10-101010-10-10-101010-10-10-101010----------------------|
G|--9--9--9-9-9--9--9--9-9-9--9--9--9-9-9--9--9--9-9-9-----------------------|
D|--0--0--0-0-0--0--0--0-0-0--0--0--0-0-0--0--0--0-0-0-----------------------|
A|--x--x--x-x-x--x--x--x-x-x--x--x--x-x-x--x--x--x-x-x-----------------------|
E|--9--9--9-9-9--9--9--9-9-9--9--9--9-9-9--9--9--9-9-9-----------------------|

"Ah..."
e|---------------------------------------------------------------------------|
B|--10-10-101010-10-10-101010-10-10-101010-10-10-101010----------------------|
G|--0--0--0-0-0--0--0--0-0-0--0--0--0-0-0--0--0--0-0-0-----------------------|
D|--0--0--0-0-0--0--0--0-0-0--0--0--0-0-0--0--0--0-0-0-----------------------|
A|--9--9--9-9-9--9--9--9-9-9--9--9--9-9-9--9--9--9-9-9-----------------------|
E|--10-10-101010-10-10-101010-10-10-101010-10-10-101010----------------------|

e|---------------------------------------------------------------------------|
B|--10-10-101010-10-10-101010-10-10-101010-10-10-101010----------------------|
G|--9--9--9-9-9--9--9--9-9-9--9--9--9-9-9--9--9--9-9-9-----------------------|
D|--0--0--0-0-0--0--0--0-0-0--0--0--0-0-0--0--0--0-0-0-----------------------|
A|--x--x--x-x-x--x--x--x-x-x--x--x--x-x-x--x--x--x-x-x-----------------------|
E|--9--9--9-9-9--9--9--9-9-9--9--9--9-9-9--9--9--9-9-9-----------------------|

e|---------------------------------------------------------------------------|
B|--8--8--8-8-8--8--8--8-8-8--8--8--8-8-8--8--8--8-8-8-----------------------|
G|--7--7--7-7-7--7--7--7-7-7--7--7--7-7-7--7--7--7-7-7-----------------------|
D|--0--0--0-0-0--0--0--0-0-0--0--0--0-0-0--0--0--0-0-0-----------------------|
A|--x--x--x-x-x--x--x--x-x-x--x--x--x-x-x--x--x--x-x-x-----------------------|
E|--7--7--7-7-7--7--7--7-7-7--7--7--7-7-7--7--7--7-7-7-----------------------|

e|---------------------------------------------------------------------------|
B|--10-10-101010-10-10-101010-10-10-101010-10-10-101010----------------------|
G|--9--9--9-9-9--9--9--9-9-9--9--9--9-9-9--9--9--9-9-9-----------------------|
D|--0--0--0-0-0--0--0--0-0-0--0--0--0-0-0--0--0--0-0-0-----------------------|
A|--x--x--x-x-x--x--x--x-x-x--x--x--x-x-x--x--x--x-x-x-----------------------|
E|--9--9--9-9-9--9--9--9-9-9--9--9--9-9-9--9--9--9-9-9-----------------------|

End on:
e|---------------------------------------------------------------------------|
B|--10~----------------------------------------------------------------------|
G|--0~-----------------------------------------------------------------------|
D|--0~-----------------------------------------------------------------------|
A|--9~-----------------------------------------------------------------------|
E|--10~----------------------------------------------------------------------|

            
            
Suggest correction
Creating personal tab
Creating personal tab
You can edit any tab online and save it as your Personal.

You can edit, replace or remove any tab part or add personal notes – all changes will be seen only by you.

Personal tabs can be accessed anytime from any device, even offline.
Learn more »
comments
print report bad tab
guest
You may want to rate the tab now too:
select rating
Wanna post a correction for this tab? Suggest correction