Oops, an error
Loading. Please wait.

Dead Mans Train tab

2,335 views 3 this week
5 commentsread comments
1 2 3 4 5
x 3
add to favorites
×
Save as Personal and add changes to this tab that will be seen only by you. Learn more ›
×
You can save this tab as Personal to edit and correct it or add notes. All changes will be seen only by you. Learn more »
launch autoscroll
font size
0
reset
how to read this tab
guitar tuner
edit
Autoscroll
slow
fast
+/-
esc
set tempo
stop
Dead Mans Train- Lady Of The Sunshine

Tabbed By Cal

CAPO ON 1
Standard Tuning

VERSE + INTRO
e|--0-------------0-----------0--------------------------------------|
B|--1-------------3-----------0--------------------------------------|
G|--0-------------0-----------0--------------------------------------|
D|--2-------------4-----------2-----------4---2---4s5s4--0-----------|
A|--3-------------5-----------2-----------2---2----------------------|
E|--0-------------0-----------0--------------------------------------|

CHORUS
e|---0----------0--------0----------0-------------------------------|
B|---0----------3--------3----------1-------------------------------|
G|---0----------4--------0----------0-------------------------------|
D|---2----------5--------4----------2-------------------------------|
A|---2----------5--------5----------3-------------------------------I
E|---0----------0--------5----------3-------------------------------|


SOLO
e|------3---0---5---0---------------------3-0--5--0-------------------|
B|--------------------3--0h3--3p0---3h5-------------3-0h3-3p0--3h5----|
G|--------------------------------------------------------------------|
D|--------------------------------------------------------------------|
A|--------------------------------------------------------------------|
E|--------------------------------------------------------------------|



ENJOY

            
            
Suggest correction
Creating personal tab
Creating personal tab
You can edit any tab online and save it as your Personal.

You can edit, replace or remove any tab part or add personal notes – all changes will be seen only by you.

Personal tabs can be accessed anytime from any device, even offline.
Learn more »
Give kudos to tab author, rate the tab!
1 2 3 4 5
comments
print report bad tab
5 comments total. Showing first comments.
0 reply
CalThoms 10 Oct 07, 2010 04:40 PM

CAPO ON 2****** Sorry

0 reply
joshua reynolds 10 Feb 01, 2013 03:24 PM

Wheres the solo for the second verse. I can work out the slow part but there's this tricky part I can't work out.

0 reply
joshua reynolds 10 Feb 01, 2013 04:52 PM

I've tried to figure out the lead parts for this song below. tab is done without a capo. Any corrections welcome.

SOLO Second Verse
e|--------------------------------------------------------------------|
B|--12b--10--5--4----12b--10--5--7----5h7p5--7p5--7p5--7p5------------|
G|-----------------------------------------6----6----6----6-----------|
D|--------------------------------------------------------------------|
A|--------------------------------------------------------------------|
E|--------------------------------------------------------------------|

e|--------------------------------------------------------------------|
B|--7p5-5--7p5--7p5-5--7p5------12b--10--5--4-------------------------|
G|------------6-----------6-------------------------------------------|
D|--------------------------------------------------------------------|
A|--------------------------------------------------------------------|
E|--------------------------------------------------------------------|

SOLO Third Verse
e|--5--2--7--2-----------------5--2--7--2-----------------------------|
B|-------------5--2h5p2--5/7--------------5--4------------------------|
G|--------------------------------------------------------------------|
D|--------------------------------------------------------------------|
A|--------------------------------------------------------------------|
E|--------------------------------------------------------------------|

Lead Through Verses
e|--------------------------------------------------------------------|
B|--------------------------------------------------------------------|
G|--------------------------------------------------------------------|
D|--7~--9~------------------------------------------------------------|
A|--5~--7~--4~--------------------------------------------------------|
E|----------2~--------------------------------------------------------|

Lead Through Chorus
e|--22222222--55555555--1212121212121212--1010101010101010------------|
B|--22222222--55555555--1212121212121212--1010101010101010------------|
G|--------------------------------------------------------------------|
D|--------------------------------------------------------------------|
A|--------------------------------------------------------------------|
E|--------------------------------------------------------------------|

guest
Wanna post a correction for this tab? Suggest correction