Oops, an error
Loading. Please wait.

Automatic bass

version 1
version 1

Whole song

Interactive

842 views 1 this week
no commentswrite comment
1 2 3 4 5
x 4
add to favorites
×
Save as Personal and add changes to this tab that will be seen only by you. Learn more ›
×
You can save this tab as Personal to edit and correct it or add notes. All changes will be seen only by you. Learn more »
launch autoscroll
font size
0
reset
guitar tuner
edit
Autoscroll
slow
fast
+/-
esc
set tempo
stop
Band: Lagwagon
Title: Automatic
Album: Resolve

"*"=Play note several times
"+"=Play note several times, but not as often as "*"

Tabbed for Standard Tuning!

G|-------------------------------------------------------|
D|-------------------------------------------------------|x4
A|-----------5--------------------------5--------7-8-7-5-|
E|--7-7-5--7---7--7-5--7-7-5---7-7-5--7---7--7-5---------|

G|-------------------------------|
D|-------------------------------|
A|----------5*-------------------|
E|--3*--5*------2*--3*--5-5-5-5--|

G|-------------------------------------------------------|
D|-------------------------------------------------------|x2
A|-----------5--------------------------5--------7-8-7-5-|
E|--7-7-5--7---7--7-5--7-7-5---7-7-5--7---7--7-5---------|

G|---------------------------------|
D|---------------------------------|
A|----------5*---------------------|
E|--3*--5*------2*--3*--6-6-6-6-6--|

G|-----------------------------------------------|
D|-----------------------------------------------|
A|----------5*------------------5*---------------|
E|--7*--3*------2*--5*--7*--3*------2*--5-5-5-5--|

G|--------------------------|
D|--------------------------|x4
A|-----5-----5-----5-----5--|
E|-7-7---7-7---5-7---5-7----|

G|-------------------------------------------------------------|
D|-------------------------------------------------------------|
A|----------5*----------------------5*-------------------------|
E|--7*--3*------2*--3+--5+--7*--3*------2*--3+--5+--3+--2+--5--|

G|-------------------------------------------------------------------|
D|-------------------------------------------------------------------|x2
A|--------------5-------------------------------5----------7-8-7-5---|
E|--7-7-5-5-7-7---7--7-5-5-7-7-5-5--7-7-5-5-7-7---7--7-5-5-----------|

G|-------------------------------------------------------------------|
D|-------------------------------------------------------------------|
A|--------------7-------------------------------7----------7-8-7-5---|
E|--7-7-5-5-7-7---7--7-5-5-7-7-5-5--7-7-5-5-7-7---7--7-5-5-----------|

G|-------------------------------------------------------------------|
D|-------------------------------------------------------------------|
A|--------------5-------------------------------5----------7-8-7-5---|
E|--7-7-5-5-7-7---7--7-5-5-7-7-5-5--7-7-5-5-7-7---7--7-5-5-----------|

G|-------------------------------------------------------------------|
D|-------------------------------------------------------------------|
A|--------------7-------------------------------7---8-8-7-8-7-5-0----|
E|--7-7-5-5-7-7---7--7-5-5-7-7-5-5--7-7-5-5-7-7---7------------------|

G|-------------------------------------------------------------------|
D|-------------------------------------------------------------------|
A|--------------5-------------------------------5----------7-8-7-5---|
E|--7-7-5-5-7-7---7--7-5-5-7-7-5-5--7-7-5-5-7-7---7--7-5-5-----------|

G|------[x2]------|-------------------------------------------|
D|----------------|-------------------------------------------|
A|--------5-------|-------5*-------------5*-------------------|
E|--3--5-----2----|-3--5-----2*--3*--5*------2*--3*--5-5-5-5--|

G|-------------------------------------------------------------------|
D|-------------------------------------------------------------------|
A|----------5*----------------------5*-------------------------------|
E|--7*--3*------2*--3+--5+--7*--3*------2*--5------------------------|

G|-------------------------------------------------------|   |-------------|
D|-------------------------------------------------------|   |-------------|
A|-----------5--------------------------5--------7-8-7-5-|   |--7-8-7-5----|
E|--7-7-5--7---7--7-5--7-7-5---7-7-5--7---7--7-5---------|x2 |----------7--|


Hope everything is ok
Tabbed by Olli
olli.32@gmx.de

            
            
Suggest correction
Creating personal tab
Creating personal tab
You can edit any tab online and save it as your Personal.

You can edit, replace or remove any tab part or add personal notes – all changes will be seen only by you.

Personal tabs can be accessed anytime from any device, even offline.
Learn more »
comments
print report bad tab
guest
Wanna post a correction for this tab? Suggest correction