Oops, an error
Loading. Please wait.
We have an official May 16 tab made by UG professional guitarists. Check out the tab »
×
4,466 views 3 this week
no commentswrite comment
1 2 3 4 5
x 4
add to favorites
×
Save as Personal and add changes to this tab that will be seen only by you. Learn more ›
×
You can save this tab as Personal to edit and correct it or add notes. All changes will be seen only by you. Learn more »
launch autoscroll
font size
0
reset
guitar tuner
backing track
0:00
0:00
edit
Autoscroll
slow
fast
+/-
esc
set tempo
stop
Difficulty
May 16 - Lagwagon


Intro
G--------------|
D--------------|
A-5---3--------|
E---7---5  x 2-|

G----------------------|
D----------------------|
A-5555555555555-2222222
E----------------------
No more waiting on them

G---------------------------|
D---------------------------|
A-5555555555555555----------|
E------------------22222222-|
as you rise inside new rooms

G------------------------|
D------------------------|
A-5-4--------------------|
E------33333333333333333-|
It's offical you've gone

G----------------------|
D----------------------|
A----------------------|
E-555555555555555555555
you can live for no one

G-----------------------------------|
D-----------------------------------|
A-5555555555--4444444444--222222222-|
E-----------------------------------|
else man the guilt must be huge

G-----------------------------------------------|
D-----------------------------------------------|
A-5-4-------------------------------------------|
E----------333333333333333-55555555555555555555-|
There's no gain in failure you succeed at being

G--------------------------------------------------------------|
D--------------------------------------------------------------|
A-55555555555555555555--222222222222--55555555555555555-222222-|
E--------------------------------------------------------------|
mine Yeah, old friend, see you there I will be proud from afar

G-----------------------------------------------------------------------------|
D-----------------------------------------------------------------------------|
A-5-4--------------------------------555555555555--4444444444444444-222222222-|
E-----333333333333333-55555555555555------------------------------------------|
I can paint a picture in a moment of memories and there aren't many left

G--------------------------|
D--------------------------|
A-5-4----------------------|
E----3333333333--555555555-|
I am extradited, uninvited

G--------------------------|
D--------------------------|        x2
A-55-44-22-00--------------|
E-------------33-55--------|
........It's just another saturday

Take a step to freedom                |
You and her lothing this cruel world  |
Take a breath of shelter and exhale   |-----> Same as verse
Trust and allegiance                 _|

G------------------------------|
D------------------------------|
A------------------------------|
E-3333333333333333333--5555555-|
Liberate yourself from hell

G----------------------------------|
D----------------------------------|        x3
A-55-44-22-00----------------------|
E-------------33-55555555555555555-|
........It's just another saturday

G------------  |
D------------  |----> before solo
A-55*---33*--  |                   *=pause
E---77*---55*  |


G--------------      |
D--------------      |----> during solo
A-5555----3333--     |
E-----7777-----5555  |

submitted by punk_factory@hotmail.com. Feel free to comment.

            
            
Suggest correction
Creating personal tab
Creating personal tab
You can edit any tab online and save it as your Personal.

You can edit, replace or remove any tab part or add personal notes – all changes will be seen only by you.

Personal tabs can be accessed anytime from any device, even offline.
Learn more »
comments
print report bad tab
guest
Wanna post a correction for this tab? Suggest correction