Oops, an error
Loading. Please wait.

The Worst tab

version 1
version 1

Whole song

693 views 6 this week
no commentswrite comment
1 2 3 4 5
1 last vote to show rating
add to favorites
×
Save as Personal and add changes to this tab that will be seen only by you. Learn more ›
×
You can save this tab as Personal to edit and correct it or add notes. All changes will be seen only by you. Learn more »
launch autoscroll
font size
0
reset
how to read this tab
guitar tuner
edit
Autoscroll
slow
fast
+/-
esc
set tempo
stop
Difficulty
This is my first tab ever done, and I haven't the slightest of ideas as to what I'm
doing, but I couldn't find any of lagwagon's new stuff; so here it is.

Any comments or revisions, please submit to the.bent.dude@sbcglobal.net.

Thanks!
Sancho D'Marco

Intro: ?

Pre-Verse: C - Barred harmonic strum 2 full double strums quickly

Verse I:
Guitar 1 (Power Chords): E - C - D - B
Guitar 2 (Octaves): A - G - A - G - F# - G

note: on final line of verse, palm mute D, strum B then jump to D

Lyrics:

How does it start?
When does it end?
Blood and love graces everyone
You only want to touch it once

He didn't give it up
She wasn't long enough
They didn't save your falling smile
He never had a chance


Chorus:
Guitar 1: G - F#/G - E - D - C
Guitar 2: I haven't taken the time to play with the octaves, but I think that's it.

E]-----------------------------------------------------------------------|
B]-----------------------------------------------------------------------|
G]---------------------------7-------5-----------------------------------|
D]---5-------5-------2-------7-strum-5-----------------------------------|
A]---5-strum-5-strum-2-Strum-5-------3-----------------------------------|
E]---3-------2-------0---------------------------------------------------|

But there it is
You're finally blessed
And you can't handle it

Bridge:
Guitar 1 & 2: Repeat verse I

The worst

Verse II

Lyrics:

What did it say?
All you really need is love
But you're gonna make those fuckers pay
You're gonna hurt someone

That's all there really is
The ones that don't survive
They lied to you a thousand times
And you're starving heart has died

Chorus II: Repeat Chorus I

Lyrics:

But there it is
You're finally blessed


Breakdown:

E]-----------------------------------------------------------------------|
B]-----------------------------------------------------------------------|
G]----------------------------------------7--7-5--5----------------------|
D]-----------------4-4-5\2--5-4-2---------7--7-5--5----------------------|
A]-------5------------------------5-2-----5--5-3--3--3-2----5------------|
E]---2-3---3-2-0-0---------------------0-0---------------2-3---3-2-------|

Cont: E - C - D - B
Guitar 2: w/phazer come in on D

Repeat the breakdown as nnoted above

outro: G - C - E - A - Cx2
Lyrics:
Failure, failure, failure

Outro #2:

E]-----------------------------------------------------------------------|
B]-----------------------------------------------------------------------|
G]---9-----7-----5-------------------------------------------------------|
D]---9--9--7--7--5-------------------------------------------------------|
A]---7--6--5--4--3-------------------------------------------------------|
E]-----------------------------------------------------------------------|

note: Sing these lyrics along with tab above

A cement frown breaking
Allows a straight line blown away
It fell at thirteen

Repeat Verse & Chorus pattern:

You're wide awake
Hours blind every winding curve
You start the fall from grace

The worst

You never had a chance

But here it is
You're finally blessed

            
            
Suggest correction
Creating personal tab
Creating personal tab
You can edit any tab online and save it as your Personal.

You can edit, replace or remove any tab part or add personal notes – all changes will be seen only by you.

Personal tabs can be accessed anytime from any device, even offline.
Learn more »
Give kudos to tab author, rate the tab!
1 2 3 4 5
comments
print report bad tab
guest
Wanna post a correction for this tab? Suggest correction