Oops, an error
Loading. Please wait.

Black Label bass

version 2
version 2
10,379 views 9 this week
7 commentsread comments
1 2 3 4 5
x 9
add to favorites
×
Save as Personal and add changes to this tab that will be seen only by you. Learn more ›
×
You can save this tab as Personal to edit and correct it or add notes. All changes will be seen only by you. Learn more »
launch autoscroll
font size
0
reset
guitar tuner
backing track
0:00
0:00
edit
Autoscroll
slow
fast
+/-
esc
set tempo
stop
Black Label
Lamb of God
New American Gospel
Tuning: D A D G (drop D)
Tabbed by bass_emagdnim (stipro@aggressive.com)


Intro x4
G|----------------------|
D|----------------------|
A|----------------------|
D|-0-0-0--------0--0-0--|

|---------------------------------| x8
|---------------------------------|
|---------------------------------|
|-00-1p0-3p0-0-1p0-4p0-3p0-0-1p0--|

Verse riff x4
G|----------------------------------|
D|----------------------------------|
A|-----------------------------5-6--|
D|-00-1p0-3p0-0-1p0-4p0-3p0-/6------|

|----------------------------------|
|----------------------------------|
|--------------------------/8-7----|
|-00-1p0-3p0-0-1p0-4p0-3p0------8--|

Chorus x4
G|-----------------------------------------------------|
D|-----------------------------------------------------|
A|---------------------------------7h8p7-------5h6p5---|
D|-0h13p1--0h13p1--1p0-3h4-0-0-0-0-------0-0-0---------|

Fill x8
|------------------------------|
|------------------------------|
|----------7h8p7-------5h6p5---|
|-0-0-0-0--------0-0-0---------|

Bridge: play open D's along with guitar

Chorus x4

Verse x4

Fill x8 (on last time playing through, end on an open D)

Outro (play till fade out)
G|------------------------------|
D|------------------------------|
A|-------6--6--6----0-0---4-4---|
D|-0-0-0---------0------0-------|

            
            
Suggest correction
Creating personal tab
Creating personal tab
You can edit any tab online and save it as your Personal.

You can edit, replace or remove any tab part or add personal notes – all changes will be seen only by you.

Personal tabs can be accessed anytime from any device, even offline.
Learn more »
comments
print report bad tab
7 comments total. Showing first comments.
0 reply
peacesells 10 Apr 12, 2007 07:51 PM

im probaly a moron but how do u pull of to 0
like 3p0

0 reply
bass_emagdnim 200 Apr 20, 2007 02:08 AM

It's like quickly tapping the fret as you pluck the note, just enough to make the fretted note heard before letting the open ring.

0 reply
dirtythirty 10 Aug 16, 2007 06:48 AM

i think the verse riff is backwards, 5 then 7, and the chorus type riff and fill just add a 32 on the fourth string and the outro i play it 6 on A 7 on D and well 4 on A with the open notes.....might be wrong but it sounds right when my band plays it

guest
You may want to rate the tab now too:
select rating
Wanna post a correction for this tab? Suggest correction